ISO-10303-21;
HEADER;
FILE_DESCRIPTION (( 'STEP AP203' ),
    '1' );
FILE_NAME ('60412.step',
    '2021-12-07T09:46:38',
    ( '' ),
    ( '' ),
    'SwSTEP 2.0',
    'SolidWorks 2019',
    '' );
FILE_SCHEMA (( 'CONFIG_CONTROL_DESIGN' ));
ENDSEC;

DATA;
#1 = ADVANCED_BREP_SHAPE_REPRESENTATION ( '60412', ( #5, #179 ), #144 ) ;
#2 = FACE_OUTER_BOUND ( 'NONE', #94, .T. ) ;
#3 = CARTESIAN_POINT ( 'NONE',  ( 1.022077346246907365E-29, 30.00000000000000000, 2.927345865710861972E-15 ) ) ;
#4 = DIRECTION ( 'NONE',  ( 4.237045877651918877E-31, 1.000000000000000000, 1.228762462150238276E-16 ) ) ;
#5 = MANIFOLD_SOLID_BREP ( 'Corps-Déplacer/Copier1', #139 ) ;
#6 = CARTESIAN_POINT ( 'NONE',  ( 2.688440630909206609E-15, 30.00000000000000000, 0.7699999999999983524 ) ) ;
#7 = CC_DESIGN_DATE_AND_TIME_ASSIGNMENT ( #183, #147, ( #59 ) ) ;
#8 = CALENDAR_DATE ( 2021, 7, 12 ) ;
#9 = ORIENTED_EDGE ( 'NONE', *, *, #178, .F. ) ;
#10 = COORDINATED_UNIVERSAL_TIME_OFFSET ( 1, 0, .AHEAD. ) ;
#11 = ORIENTED_EDGE ( 'NONE', *, *, #204, .T. ) ;
#12 = CONICAL_SURFACE ( 'NONE', #165, 30.00000000000000000, 1.569296327919894818 ) ;
#13 = APPROVAL_STATUS ( 'not_yet_approved' ) ;
#14 = PLANE ( 'NONE',  #236 ) ;
#15 = AXIS2_PLACEMENT_3D ( 'NONE', #132, #246, #79 ) ;
#16 = EDGE_CURVE ( 'NONE', #21, #21, #229, .T. ) ;
#17 = EDGE_LOOP ( 'NONE', ( #9 ) ) ;
#18 = EDGE_LOOP ( 'NONE', ( #249 ) ) ;
#19 = AXIS2_PLACEMENT_3D ( 'NONE', #119, #22, #200 ) ;
#20 = APPROVAL_PERSON_ORGANIZATION ( #238, #136, #49 ) ;
#21 = VERTEX_POINT ( 'NONE', #26 ) ;
#22 = DIRECTION ( 'NONE',  ( 3.491481338843133355E-15, -1.224646799147353207E-16, 1.000000000000000000 ) ) ;
#23 = AXIS2_PLACEMENT_3D ( 'NONE', #189, #57, #148 ) ;
#24 = DIRECTION ( 'NONE',  ( 4.237045877651918877E-31, 1.000000000000000000, 1.228762462150238276E-16 ) ) ;
#25 = CARTESIAN_POINT ( 'NONE',  ( 2.793185071074506684E-15, -9.797174393178826150E-17, 0.8000000000000000444 ) ) ;
#26 = CARTESIAN_POINT ( 'NONE',  ( 3.785471652766309138E-31, 50.00000000000000000, 1.084202172485504434E-16 ) ) ;
#27 = CARTESIAN_POINT ( 'NONE',  ( 0.0000000000000000000, 0.0000000000000000000, 0.0000000000000000000 ) ) ;
#28 = ORGANIZATION ( 'UNSPECIFIED', 'UNSPECIFIED', '' ) ;
#29 = SHAPE_DEFINITION_REPRESENTATION ( #177, #1 ) ;
#30 = APPLICATION_PROTOCOL_DEFINITION ( 'international standard', 'config_control_design', 1994, #197 ) ;
#31 = COORDINATED_UNIVERSAL_TIME_OFFSET ( 1, 0, .AHEAD. ) ;
#32 = UNCERTAINTY_MEASURE_WITH_UNIT (LENGTH_MEASURE( 1.000000000000000082E-05 ), #114, 'distance_accuracy_value', 'NONE');
#33 = CC_DESIGN_PERSON_AND_ORGANIZATION_ASSIGNMENT ( #244, #202, ( #208 ) ) ;
#34 = AXIS2_PLACEMENT_3D ( 'NONE', #25, #113, #87 ) ;
#35 = CIRCLE ( 'NONE', #155, 11.00000000000000000 ) ;
#36 = FACE_BOUND ( 'NONE', #18, .T. ) ;
#37 = DIRECTION ( 'NONE',  ( 4.277169418159986582E-31, 1.000000000000000000, 1.224244953098215506E-16 ) ) ;
#38 = AXIS2_PLACEMENT_3D ( 'NONE', #45, #117, #162 ) ;
#39 = DIRECTION ( 'NONE',  ( 4.275831445896958607E-31, 1.000000000000000000, 1.224646799147353207E-16 ) ) ;
#40 = DIRECTION ( 'NONE',  ( -3.491481338843133355E-15, 1.224646799147353207E-16, -1.000000000000000000 ) ) ;
#41 = AXIS2_PLACEMENT_3D ( 'NONE', #140, #193, #24 ) ;
#42 = CARTESIAN_POINT ( 'NONE',  ( 2.793185071074528378E-15, 50.00000000000000000, 0.8000000000000061506 ) ) ;
#43 = FACE_BOUND ( 'NONE', #153, .T. ) ;
#44 = CIRCLE ( 'NONE', #185, 11.00000000000000000 ) ;
#45 = CARTESIAN_POINT ( 'NONE',  ( 0.0000000000000000000, 0.0000000000000000000, 0.0000000000000000000 ) ) ;
#46 = DIRECTION ( 'NONE',  ( 4.275831445896958607E-31, 1.000000000000000000, 1.224646799147353207E-16 ) ) ;
#47 = APPROVAL ( #163, 'UNSPECIFIED' ) ;
#48 = DATE_AND_TIME ( #8, #173 ) ;
#49 = APPROVAL_ROLE ( '' ) ;
#50 = ORIENTED_EDGE ( 'NONE', *, *, #16, .F. ) ;
#51 = ADVANCED_FACE ( 'NONE', ( #150, #212 ), #60, .T. ) ;
#52 = COORDINATED_UNIVERSAL_TIME_OFFSET ( 1, 0, .AHEAD. ) ;
#53 = PERSON_AND_ORGANIZATION_ROLE ( 'design_supplier' ) ;
#54 = LOCAL_TIME ( 10, 46, 38.00000000000000000, #31 ) ;
#55 = EDGE_CURVE ( 'NONE', #194, #194, #35, .T. ) ;
#56 = ORIENTED_EDGE ( 'NONE', *, *, #121, .F. ) ;
#57 = DIRECTION ( 'NONE',  ( -3.491481338843133355E-15, 1.224646799147353207E-16, -1.000000000000000000 ) ) ;
#58 = ORIENTED_EDGE ( 'NONE', *, *, #16, .T. ) ;
#59 = PRODUCT_DEFINITION ( 'UNKNOWN', '', #208, #166 ) ;
#60 = CYLINDRICAL_SURFACE ( 'NONE', #15, 30.00000000000000000 ) ;
#61 = VERTEX_POINT ( 'NONE', #6 ) ;
#62 = CC_DESIGN_SECURITY_CLASSIFICATION ( #97, ( #208 ) ) ;
#63 =( NAMED_UNIT ( * ) PLANE_ANGLE_UNIT ( ) SI_UNIT ( $, .RADIAN. ) );
#64 = FACE_OUTER_BOUND ( 'NONE', #188, .T. ) ;
#65 = CYLINDRICAL_SURFACE ( 'NONE', #81, 30.00000000000000000 ) ;
#66 = AXIS2_PLACEMENT_3D ( 'NONE', #156, #219, #84 ) ;
#67 = APPROVAL_PERSON_ORGANIZATION ( #88, #47, #239 ) ;
#68 = FACE_OUTER_BOUND ( 'NONE', #129, .T. ) ;
#69 = ADVANCED_FACE ( 'NONE', ( #154, #76 ), #75, .F. ) ;
#70 = CALENDAR_DATE ( 2021, 7, 12 ) ;
#71 = COORDINATED_UNIVERSAL_TIME_OFFSET ( 1, 0, .AHEAD. ) ;
#72 = CALENDAR_DATE ( 2021, 7, 12 ) ;
#73 = EDGE_LOOP ( 'NONE', ( #146 ) ) ;
#74 = APPLICATION_PROTOCOL_DEFINITION ( 'international standard', 'config_control_design', 1994, #125 ) ;
#75 = CYLINDRICAL_SURFACE ( 'NONE', #23, 11.00000000000000000 ) ;
#76 = FACE_OUTER_BOUND ( 'NONE', #17, .T. ) ;
#77 = DIRECTION ( 'NONE',  ( -3.491481338843133355E-15, 1.224646799147353207E-16, -1.000000000000000000 ) ) ;
#78 = ORIENTED_EDGE ( 'NONE', *, *, #85, .F. ) ;
#79 = DIRECTION ( 'NONE',  ( 4.275831445896958607E-31, 1.000000000000000000, 1.224646799147352961E-16 ) ) ;
#80 = CARTESIAN_POINT ( 'NONE',  ( 2.793185071074500373E-15, 30.00000000000000000, 0.7999999999999982681 ) ) ;
#81 = AXIS2_PLACEMENT_3D ( 'NONE', #133, #82, #181 ) ;
#82 = DIRECTION ( 'NONE',  ( -3.491481338843133355E-15, 1.224646799147353207E-16, -1.000000000000000000 ) ) ;
#83 = VERTEX_POINT ( 'NONE', #134 ) ;
#84 = DIRECTION ( 'NONE',  ( 4.275831445896958607E-31, 1.000000000000000000, 1.224646799147352961E-16 ) ) ;
#85 = EDGE_CURVE ( 'NONE', #234, #234, #112, .T. ) ;
#86 = LOCAL_TIME ( 10, 46, 38.00000000000000000, #52 ) ;
#87 = DIRECTION ( 'NONE',  ( 4.314083075427408311E-31, 1.000000000000000000, 1.214306433183764966E-16 ) ) ;
#88 = PERSON_AND_ORGANIZATION ( #195, #28 ) ;
#89 = CC_DESIGN_PERSON_AND_ORGANIZATION_ASSIGNMENT ( #141, #226, ( #97 ) ) ;
#90 = EDGE_LOOP ( 'NONE', ( #110 ) ) ;
#91 = PERSON_AND_ORGANIZATION ( #195, #28 ) ;
#92 = APPROVAL ( #13, 'UNSPECIFIED' ) ;
#93 = APPROVAL_DATE_TIME ( #143, #92 ) ;
#94 = EDGE_LOOP ( 'NONE', ( #11 ) ) ;
#95 = ORIENTED_EDGE ( 'NONE', *, *, #201, .F. ) ;
#96 = EDGE_LOOP ( 'NONE', ( #78 ) ) ;
#97 = SECURITY_CLASSIFICATION ( '', '', #164 ) ;
#98 = ORIENTED_EDGE ( 'NONE', *, *, #55, .F. ) ;
#99 = ADVANCED_FACE ( 'NONE', ( #192, #152 ), #12, .F. ) ;
#100 = VERTEX_POINT ( 'NONE', #80 ) ;
#101 = FACE_OUTER_BOUND ( 'NONE', #73, .T. ) ;
#102 = CARTESIAN_POINT ( 'NONE',  ( -1.892735826383162188E-30, 11.00000000000000000, -5.421010862427524142E-16 ) ) ;
#103 = DIRECTION ( 'NONE',  ( -3.491481338843133355E-15, 1.224646799147353207E-16, -1.000000000000000000 ) ) ;
#104 = VERTEX_POINT ( 'NONE', #42 ) ;
#105 = PERSON_AND_ORGANIZATION ( #195, #28 ) ;
#106 = CALENDAR_DATE ( 2021, 7, 12 ) ;
#107 = EDGE_LOOP ( 'NONE', ( #230 ) ) ;
#108 = DATE_AND_TIME ( #70, #54 ) ;
#109 = CC_DESIGN_PERSON_AND_ORGANIZATION_ASSIGNMENT ( #91, #122, ( #118 ) ) ;
#110 = ORIENTED_EDGE ( 'NONE', *, *, #55, .T. ) ;
#111 = DIRECTION ( 'NONE',  ( 4.275831445896957731E-31, 1.000000000000000000, 1.224646799147353207E-16 ) ) ;
#112 = CIRCLE ( 'NONE', #198, 30.00000000000000000 ) ;
#113 = DIRECTION ( 'NONE',  ( -3.491481338843133355E-15, 1.224646799147353207E-16, -1.000000000000000000 ) ) ;
#114 =( LENGTH_UNIT ( ) NAMED_UNIT ( * ) SI_UNIT ( .MILLI., .METRE. ) );
#115 = CYLINDRICAL_SURFACE ( 'NONE', #38, 50.00000000000000000 ) ;
#116 = ADVANCED_FACE ( 'NONE', ( #36, #187 ), #14, .T. ) ;
#117 = DIRECTION ( 'NONE',  ( -3.491481338843133355E-15, 1.224646799147353207E-16, -1.000000000000000000 ) ) ;
#118 = PRODUCT ( '60412', '60412', '', ( #242 ) ) ;
#119 = CARTESIAN_POINT ( 'NONE',  ( 2.793185071074506684E-15, -9.797174393178826150E-17, 0.8000000000000000444 ) ) ;
#120 = DATE_TIME_ROLE ( 'classification_date' ) ;
#121 = EDGE_CURVE ( 'NONE', #61, #61, #223, .T. ) ;
#122 = PERSON_AND_ORGANIZATION_ROLE ( 'design_owner' ) ;
#123 = DIRECTION ( 'NONE',  ( 1.000000000000000000, 0.0000000000000000000, 0.0000000000000000000 ) ) ;
#124 = CALENDAR_DATE ( 2021, 7, 12 ) ;
#125 = APPLICATION_CONTEXT ( 'configuration controlled 3d designs of mechanical parts and assemblies' ) ;
#126 = COORDINATED_UNIVERSAL_TIME_OFFSET ( 1, 0, .AHEAD. ) ;
#127 = LOCAL_TIME ( 10, 46, 38.00000000000000000, #71 ) ;
#128 = DIRECTION ( 'NONE',  ( -3.491481338843133355E-15, 1.224646799147353207E-16, -1.000000000000000000 ) ) ;
#129 = EDGE_LOOP ( 'NONE', ( #56 ) ) ;
#130 = AXIS2_PLACEMENT_3D ( 'NONE', #215, #169, #39 ) ;
#131 = ORIENTED_EDGE ( 'NONE', *, *, #201, .T. ) ;
#132 = CARTESIAN_POINT ( 'NONE',  ( 0.0000000000000000000, 0.0000000000000000000, 0.0000000000000000000 ) ) ;
#133 = CARTESIAN_POINT ( 'NONE',  ( 0.0000000000000000000, 0.0000000000000000000, 0.0000000000000000000 ) ) ;
#134 = CARTESIAN_POINT ( 'NONE',  ( 2.793185071074500768E-15, 11.00000000000000000, 0.7999999999999982681 ) ) ;
#135 = DIRECTION ( 'NONE',  ( -3.491481338843133355E-15, 1.224646799147353207E-16, -1.000000000000000000 ) ) ;
#136 = APPROVAL ( #145, 'UNSPECIFIED' ) ;
#137 = DIRECTION ( 'NONE',  ( -4.275831445896958607E-31, -1.000000000000000000, -1.224646799147353207E-16 ) ) ;
#138 = AXIS2_PLACEMENT_3D ( 'NONE', #196, #135, #4 ) ;
#139 = CLOSED_SHELL ( 'NONE', ( #210, #69, #116, #142, #248, #168, #99, #51 ) ) ;
#140 = CARTESIAN_POINT ( 'NONE',  ( 2.793185071074487752E-15, -9.797174393178759590E-17, 0.7999999999999946043 ) ) ;
#141 = PERSON_AND_ORGANIZATION ( #195, #28 ) ;
#142 = ADVANCED_FACE ( 'NONE', ( #2, #68 ), #65, .T. ) ;
#143 = DATE_AND_TIME ( #72, #237 ) ;
#144 =( GEOMETRIC_REPRESENTATION_CONTEXT ( 3 ) GLOBAL_UNCERTAINTY_ASSIGNED_CONTEXT ( ( #32 ) ) GLOBAL_UNIT_ASSIGNED_CONTEXT ( ( #114, #63, #209 ) ) REPRESENTATION_CONTEXT ( 'NONE', 'WORKASPACE' ) );
#145 = APPROVAL_STATUS ( 'not_yet_approved' ) ;
#146 = ORIENTED_EDGE ( 'NONE', *, *, #149, .T. ) ;
#147 = DATE_TIME_ROLE ( 'creation_date' ) ;
#148 = DIRECTION ( 'NONE',  ( 4.275831445896957731E-31, 1.000000000000000000, 1.224646799147353207E-16 ) ) ;
#149 = EDGE_CURVE ( 'NONE', #180, #180, #151, .T. ) ;
#150 = FACE_OUTER_BOUND ( 'NONE', #175, .T. ) ;
#151 = CIRCLE ( 'NONE', #66, 30.00000000000000000 ) ;
#152 = FACE_BOUND ( 'NONE', #96, .T. ) ;
#153 = EDGE_LOOP ( 'NONE', ( #98 ) ) ;
#154 = FACE_OUTER_BOUND ( 'NONE', #90, .T. ) ;
#155 = AXIS2_PLACEMENT_3D ( 'NONE', #228, #40, #111 ) ;
#156 = CARTESIAN_POINT ( 'NONE',  ( -2.606720875221802875E-30, 9.143146035455276261E-32, -7.465945317311972060E-16 ) ) ;
#157 = PRODUCT_RELATED_PRODUCT_CATEGORY ( 'detail', '', ( #118 ) ) ;
#158 = FACE_OUTER_BOUND ( 'NONE', #170, .T. ) ;
#159 = CARTESIAN_POINT ( 'NONE',  ( 2.793185071074496035E-15, -9.797174393178789173E-17, 0.7999999999999970468 ) ) ;
#160 = APPROVAL_PERSON_ORGANIZATION ( #105, #92, #186 ) ;
#161 = CC_DESIGN_DATE_AND_TIME_ASSIGNMENT ( #48, #120, ( #97 ) ) ;
#162 = DIRECTION ( 'NONE',  ( 4.275831445896958607E-31, 1.000000000000000000, 1.224646799147353207E-16 ) ) ;
#163 = APPROVAL_STATUS ( 'not_yet_approved' ) ;
#164 = SECURITY_CLASSIFICATION_LEVEL ( 'unclassified' ) ;
#165 = AXIS2_PLACEMENT_3D ( 'NONE', #232, #128, #211 ) ;
#166 = DESIGN_CONTEXT ( 'detailed design', #197, 'design' ) ;
#167 = CC_DESIGN_PERSON_AND_ORGANIZATION_ASSIGNMENT ( #224, #221, ( #59 ) ) ;
#168 = ADVANCED_FACE ( 'NONE', ( #216, #158 ), #115, .T. ) ;
#169 = DIRECTION ( 'NONE',  ( -3.491481338843133355E-15, 1.224646799147353207E-16, -1.000000000000000000 ) ) ;
#170 = EDGE_LOOP ( 'NONE', ( #50 ) ) ;
#171 = CARTESIAN_POINT ( 'NONE',  ( 1.047444401652912865E-16, -3.673940397441964434E-18, 0.02999999999999922520 ) ) ;
#172 = CIRCLE ( 'NONE', #34, 50.00000000000000000 ) ;
#173 = LOCAL_TIME ( 10, 46, 38.00000000000000000, #10 ) ;
#174 = ORIENTED_EDGE ( 'NONE', *, *, #204, .F. ) ;
#175 = EDGE_LOOP ( 'NONE', ( #247 ) ) ;
#176 = CARTESIAN_POINT ( 'NONE',  ( 1.047444401653041178E-16, 30.00000000000000000, 0.03000000000000289935 ) ) ;
#177 = PRODUCT_DEFINITION_SHAPE ( 'NONE', 'NONE',  #59 ) ;
#178 = EDGE_CURVE ( 'NONE', #83, #83, #44, .T. ) ;
#179 = AXIS2_PLACEMENT_3D ( 'NONE', #27, #240, #123 ) ;
#180 = VERTEX_POINT ( 'NONE', #3 ) ;
#181 = DIRECTION ( 'NONE',  ( 4.275831445896958607E-31, 1.000000000000000000, 1.224646799147352961E-16 ) ) ;
#182 = CARTESIAN_POINT ( 'NONE',  ( 2.793185071074496429E-15, 11.00000000000000000, 0.7999999999999971578 ) ) ;
#183 = DATE_AND_TIME ( #124, #86 ) ;
#184 = PERSON_AND_ORGANIZATION ( #195, #28 ) ;
#185 = AXIS2_PLACEMENT_3D ( 'NONE', #159, #103, #199 ) ;
#186 = APPROVAL_ROLE ( '' ) ;
#187 = FACE_OUTER_BOUND ( 'NONE', #205, .T. ) ;
#188 = EDGE_LOOP ( 'NONE', ( #95 ) ) ;
#189 = CARTESIAN_POINT ( 'NONE',  ( 0.0000000000000000000, 0.0000000000000000000, 0.0000000000000000000 ) ) ;
#190 = CIRCLE ( 'NONE', #41, 30.00000000000000000 ) ;
#191 = CC_DESIGN_APPROVAL ( #136, ( #208 ) ) ;
#192 = FACE_OUTER_BOUND ( 'NONE', #243, .T. ) ;
#193 = DIRECTION ( 'NONE',  ( -3.491481338843133355E-15, 1.224646799147353207E-16, -1.000000000000000000 ) ) ;
#194 = VERTEX_POINT ( 'NONE', #102 ) ;
#195 = PERSON ( 'UNSPECIFIED', 'UNSPECIFIED', 'UNSPECIFIED', ('UNSPECIFIED'), ('UNSPECIFIED'), ('UNSPECIFIED') ) ;
#196 = CARTESIAN_POINT ( 'NONE',  ( 2.688440630909193988E-15, -9.429780353434554442E-17, 0.7699999999999946887 ) ) ;
#197 = APPLICATION_CONTEXT ( 'configuration controlled 3d designs of mechanical parts and assemblies' ) ;
#198 = AXIS2_PLACEMENT_3D ( 'NONE', #171, #77, #37 ) ;
#199 = DIRECTION ( 'NONE',  ( 4.202028969572151271E-31, 1.000000000000000000, 1.182766006347823109E-16 ) ) ;
#200 = DIRECTION ( 'NONE',  ( -4.314083075427408311E-31, -1.000000000000000000, -1.214306433183764966E-16 ) ) ;
#201 = EDGE_CURVE ( 'NONE', #104, #104, #172, .T. ) ;
#202 = PERSON_AND_ORGANIZATION_ROLE ( 'creator' ) ;
#203 = APPROVAL_DATE_TIME ( #222, #47 ) ;
#204 = EDGE_CURVE ( 'NONE', #100, #100, #190, .T. ) ;
#205 = EDGE_LOOP ( 'NONE', ( #174 ) ) ;
#206 = APPROVAL_DATE_TIME ( #108, #136 ) ;
#207 = AXIS2_PLACEMENT_3D ( 'NONE', #233, #220, #46 ) ;
#208 = PRODUCT_DEFINITION_FORMATION_WITH_SPECIFIED_SOURCE ( 'ANY', '', #118, .NOT_KNOWN. ) ;
#209 =( NAMED_UNIT ( * ) SI_UNIT ( $, .STERADIAN. ) SOLID_ANGLE_UNIT ( ) );
#210 = ADVANCED_FACE ( 'NONE', ( #101, #43 ), #235, .T. ) ;
#211 = DIRECTION ( 'NONE',  ( 4.277169418159986582E-31, 1.000000000000000000, 1.224244953098215506E-16 ) ) ;
#212 = FACE_OUTER_BOUND ( 'NONE', #107, .T. ) ;
#213 = CONICAL_SURFACE ( 'NONE', #19, 50.00000000000000000, 1.569296327919894818 ) ;
#214 = EDGE_LOOP ( 'NONE', ( #245 ) ) ;
#215 = CARTESIAN_POINT ( 'NONE',  ( -2.100061006420816256E-29, 7.366022441292991366E-31, -6.014813778488215642E-15 ) ) ;
#216 = FACE_OUTER_BOUND ( 'NONE', #225, .T. ) ;
#217 = FACE_BOUND ( 'NONE', #214, .T. ) ;
#218 = DIRECTION ( 'NONE',  ( 3.491481338843133355E-15, -1.224646799147353207E-16, 1.000000000000000000 ) ) ;
#219 = DIRECTION ( 'NONE',  ( -3.491481338843133355E-15, 1.224646799147353207E-16, -1.000000000000000000 ) ) ;
#220 = DIRECTION ( 'NONE',  ( -3.491481338843133355E-15, 1.224646799147353207E-16, -1.000000000000000000 ) ) ;
#221 = PERSON_AND_ORGANIZATION_ROLE ( 'creator' ) ;
#222 = DATE_AND_TIME ( #106, #127 ) ;
#223 = CIRCLE ( 'NONE', #138, 30.00000000000000000 ) ;
#224 = PERSON_AND_ORGANIZATION ( #195, #28 ) ;
#225 = EDGE_LOOP ( 'NONE', ( #131 ) ) ;
#226 = PERSON_AND_ORGANIZATION_ROLE ( 'classification_officer' ) ;
#227 = CC_DESIGN_APPROVAL ( #92, ( #59 ) ) ;
#228 = CARTESIAN_POINT ( 'NONE',  ( -6.596150416869815780E-30, 2.313618121009533520E-31, -1.889212565304840819E-15 ) ) ;
#229 = CIRCLE ( 'NONE', #130, 50.00000000000000000 ) ;
#230 = ORIENTED_EDGE ( 'NONE', *, *, #149, .F. ) ;
#231 = CC_DESIGN_PERSON_AND_ORGANIZATION_ASSIGNMENT ( #184, #53, ( #208 ) ) ;
#232 = CARTESIAN_POINT ( 'NONE',  ( 1.047444401652912865E-16, -3.673940397441964434E-18, 0.02999999999999922520 ) ) ;
#233 = CARTESIAN_POINT ( 'NONE',  ( 8.226058691645066317E-30, 30.00000000000000000, 2.356036848924040363E-15 ) ) ;
#234 = VERTEX_POINT ( 'NONE', #176 ) ;
#235 = PLANE ( 'NONE',  #207 ) ;
#236 = AXIS2_PLACEMENT_3D ( 'NONE', #182, #218, #137 ) ;
#237 = LOCAL_TIME ( 10, 46, 38.00000000000000000, #126 ) ;
#238 = PERSON_AND_ORGANIZATION ( #195, #28 ) ;
#239 = APPROVAL_ROLE ( '' ) ;
#240 = DIRECTION ( 'NONE',  ( 0.0000000000000000000, 0.0000000000000000000, 1.000000000000000000 ) ) ;
#241 = CC_DESIGN_APPROVAL ( #47, ( #97 ) ) ;
#242 = MECHANICAL_CONTEXT ( 'NONE', #125, 'mechanical' ) ;
#243 = EDGE_LOOP ( 'NONE', ( #58 ) ) ;
#244 = PERSON_AND_ORGANIZATION ( #195, #28 ) ;
#245 = ORIENTED_EDGE ( 'NONE', *, *, #121, .T. ) ;
#246 = DIRECTION ( 'NONE',  ( -3.491481338843133355E-15, 1.224646799147353207E-16, -1.000000000000000000 ) ) ;
#247 = ORIENTED_EDGE ( 'NONE', *, *, #85, .T. ) ;
#248 = ADVANCED_FACE ( 'NONE', ( #217, #64 ), #213, .F. ) ;
#249 = ORIENTED_EDGE ( 'NONE', *, *, #178, .T. ) ;
ENDSEC;
END-ISO-10303-21;
