ISO-10303-21;
HEADER;
FILE_DESCRIPTION (( 'STEP AP203' ),
    '1' );
FILE_NAME ('60411.step',
    '2021-12-07T09:46:38',
    ( '' ),
    ( '' ),
    'SwSTEP 2.0',
    'SolidWorks 2019',
    '' );
FILE_SCHEMA (( 'CONFIG_CONTROL_DESIGN' ));
ENDSEC;

DATA;
#1 = CARTESIAN_POINT ( 'NONE',  ( 0.0000000000000000000, 40.00000000000000000, 0.0000000000000000000 ) ) ;
#2 = ORIENTED_EDGE ( 'NONE', *, *, #79, .T. ) ;
#3 = DIRECTION ( 'NONE',  ( 4.275831445896958607E-31, 1.000000000000000000, 1.224646799147353207E-16 ) ) ;
#4 = AXIS2_PLACEMENT_3D ( 'NONE', #148, #114, #184 ) ;
#5 = ORIENTED_EDGE ( 'NONE', *, *, #37, .T. ) ;
#6 = FACE_OUTER_BOUND ( 'NONE', #84, .T. ) ;
#7 = CARTESIAN_POINT ( 'NONE',  ( 1.047444401652934189E-16, -3.673940397442039160E-18, 0.02999999999999983583 ) ) ;
#8 = ADVANCED_FACE ( 'NONE', ( #6, #34 ), #80, .T. ) ;
#9 = PRODUCT_DEFINITION_FORMATION_WITH_SPECIFIED_SOURCE ( 'ANY', '', #230, .NOT_KNOWN. ) ;
#10 = PERSON_AND_ORGANIZATION ( #61, #28 ) ;
#11 = CARTESIAN_POINT ( 'NONE',  ( 1.047444401652934189E-16, -3.673940397442039160E-18, 0.02999999999999983583 ) ) ;
#12 = VERTEX_POINT ( 'NONE', #118 ) ;
#13 = PERSON_AND_ORGANIZATION_ROLE ( 'creator' ) ;
#14 = ADVANCED_FACE ( 'NONE', ( #26, #72 ), #94, .T. ) ;
#15 =( NAMED_UNIT ( * ) PLANE_ANGLE_UNIT ( ) SI_UNIT ( $, .RADIAN. ) );
#16 = CARTESIAN_POINT ( 'NONE',  ( -8.473523175499575505E-31, 2.972111842308975202E-32, -2.426913494060716621E-16 ) ) ;
#17 = ORIENTED_EDGE ( 'NONE', *, *, #51, .F. ) ;
#18 = DIRECTION ( 'NONE',  ( 3.491481338843133355E-15, -1.224646799147353207E-16, 1.000000000000000000 ) ) ;
#19 = EDGE_LOOP ( 'NONE', ( #235 ) ) ;
#20 = EDGE_CURVE ( 'NONE', #105, #105, #96, .T. ) ;
#21 = DIRECTION ( 'NONE',  ( -3.491481338843133355E-15, 1.224646799147353207E-16, -1.000000000000000000 ) ) ;
#22 = ORIENTED_EDGE ( 'NONE', *, *, #20, .F. ) ;
#23 = DIRECTION ( 'NONE',  ( -3.491481338843133355E-15, 1.224646799147353207E-16, -1.000000000000000000 ) ) ;
#24 = FACE_OUTER_BOUND ( 'NONE', #86, .T. ) ;
#25 = EDGE_LOOP ( 'NONE', ( #179 ) ) ;
#26 = FACE_OUTER_BOUND ( 'NONE', #234, .T. ) ;
#27 = APPROVAL_ROLE ( '' ) ;
#28 = ORGANIZATION ( 'UNSPECIFIED', 'UNSPECIFIED', '' ) ;
#29 = DIRECTION ( 'NONE',  ( -3.491481338843133355E-15, 1.224646799147353207E-16, -1.000000000000000000 ) ) ;
#30 = APPLICATION_CONTEXT ( 'configuration controlled 3d designs of mechanical parts and assemblies' ) ;
#31 = CIRCLE ( 'NONE', #146, 25.00000000000000000 ) ;
#32 = APPLICATION_PROTOCOL_DEFINITION ( 'international standard', 'config_control_design', 1994, #30 ) ;
#33 = ADVANCED_FACE ( 'NONE', ( #226, #206 ), #128, .T. ) ;
#34 = FACE_OUTER_BOUND ( 'NONE', #42, .T. ) ;
#35 = CARTESIAN_POINT ( 'NONE',  ( 2.793185071074519700E-15, 40.00000000000000000, 0.8000000000000037081 ) ) ;
#36 = AXIS2_PLACEMENT_3D ( 'NONE', #124, #18, #66 ) ;
#37 = EDGE_CURVE ( 'NONE', #232, #232, #152, .T. ) ;
#38 = CIRCLE ( 'NONE', #195, 25.00000000000000000 ) ;
#39 = DIRECTION ( 'NONE',  ( -3.491481338843133355E-15, 1.224646799147353207E-16, -1.000000000000000000 ) ) ;
#40 = FACE_BOUND ( 'NONE', #47, .T. ) ;
#41 = DIRECTION ( 'NONE',  ( -3.491481338843133355E-15, 1.224646799147353207E-16, -1.000000000000000000 ) ) ;
#42 = EDGE_LOOP ( 'NONE', ( #180 ) ) ;
#43 = ORIENTED_EDGE ( 'NONE', *, *, #79, .F. ) ;
#44 = EDGE_LOOP ( 'NONE', ( #127 ) ) ;
#45 = VERTEX_POINT ( 'NONE', #1 ) ;
#46 = ADVANCED_FACE ( 'NONE', ( #59, #135 ), #246, .T. ) ;
#47 = EDGE_LOOP ( 'NONE', ( #110 ) ) ;
#48 = PERSON_AND_ORGANIZATION_ROLE ( 'creator' ) ;
#49 =( NAMED_UNIT ( * ) SI_UNIT ( $, .STERADIAN. ) SOLID_ANGLE_UNIT ( ) );
#50 = AXIS2_PLACEMENT_3D ( 'NONE', #136, #41, #197 ) ;
#51 = EDGE_CURVE ( 'NONE', #45, #45, #238, .T. ) ;
#52 = COORDINATED_UNIVERSAL_TIME_OFFSET ( 1, 0, .AHEAD. ) ;
#53 = PERSON_AND_ORGANIZATION_ROLE ( 'classification_officer' ) ;
#54 = CONICAL_SURFACE ( 'NONE', #163, 25.00000000000000000, 1.568796329461556560 ) ;
#55 = DATE_AND_TIME ( #73, #162 ) ;
#56 = DIRECTION ( 'NONE',  ( -3.491481338843133355E-15, 1.224646799147353207E-16, -1.000000000000000000 ) ) ;
#57 = APPROVAL_ROLE ( '' ) ;
#58 = APPROVAL_PERSON_ORGANIZATION ( #147, #210, #112 ) ;
#59 = FACE_OUTER_BOUND ( 'NONE', #19, .T. ) ;
#60 = FACE_OUTER_BOUND ( 'NONE', #177, .T. ) ;
#61 = PERSON ( 'UNSPECIFIED', 'UNSPECIFIED', 'UNSPECIFIED', ('UNSPECIFIED'), ('UNSPECIFIED'), ('UNSPECIFIED') ) ;
#62 = AXIS2_PLACEMENT_3D ( 'NONE', #217, #181, #82 ) ;
#63 = VERTEX_POINT ( 'NONE', #138 ) ;
#64 = EDGE_LOOP ( 'NONE', ( #161 ) ) ;
#65 = EDGE_LOOP ( 'NONE', ( #141 ) ) ;
#66 = DIRECTION ( 'NONE',  ( -4.237045877651918877E-31, -1.000000000000000000, -1.219727444046192488E-16 ) ) ;
#67 = CC_DESIGN_APPROVAL ( #132, ( #119 ) ) ;
#68 = CC_DESIGN_PERSON_AND_ORGANIZATION_ASSIGNMENT ( #143, #53, ( #119 ) ) ;
#69 = CALENDAR_DATE ( 2021, 7, 12 ) ;
#70 = PRODUCT_DEFINITION_SHAPE ( 'NONE', 'NONE',  #213 ) ;
#71 = CARTESIAN_POINT ( 'NONE',  ( 0.0000000000000000000, 0.0000000000000000000, 0.0000000000000000000 ) ) ;
#72 = FACE_OUTER_BOUND ( 'NONE', #44, .T. ) ;
#73 = CALENDAR_DATE ( 2021, 7, 12 ) ;
#74 = EDGE_CURVE ( 'NONE', #63, #63, #31, .T. ) ;
#75 = COORDINATED_UNIVERSAL_TIME_OFFSET ( 1, 0, .AHEAD. ) ;
#76 = CARTESIAN_POINT ( 'NONE',  ( 2.793185071074496035E-15, -9.797174393178789173E-17, 0.7999999999999970468 ) ) ;
#77 = DIRECTION ( 'NONE',  ( 0.0000000000000000000, 0.0000000000000000000, 1.000000000000000000 ) ) ;
#78 = CARTESIAN_POINT ( 'NONE',  ( 0.0000000000000000000, 0.0000000000000000000, 0.0000000000000000000 ) ) ;
#79 = EDGE_CURVE ( 'NONE', #216, #216, #171, .T. ) ;
#80 = CYLINDRICAL_SURFACE ( 'NONE', #224, 25.00000000000000000 ) ;
#81 = CARTESIAN_POINT ( 'NONE',  ( -1.710332578358783302E-29, 5.999039130647430431E-31, -4.898587196589413026E-15 ) ) ;
#82 = DIRECTION ( 'NONE',  ( 4.237045877651918877E-31, 1.000000000000000000, 1.219727444046192488E-16 ) ) ;
#83 = DIRECTION ( 'NONE',  ( 4.275831445896958607E-31, 1.000000000000000000, 1.224646799147353207E-16 ) ) ;
#84 = EDGE_LOOP ( 'NONE', ( #5 ) ) ;
#85 = DIRECTION ( 'NONE',  ( -3.491481338843133355E-15, 1.224646799147353207E-16, -1.000000000000000000 ) ) ;
#86 = EDGE_LOOP ( 'NONE', ( #139 ) ) ;
#87 = CYLINDRICAL_SURFACE ( 'NONE', #50, 11.00000000000000000 ) ;
#88 = EDGE_LOOP ( 'NONE', ( #2 ) ) ;
#89 = DIRECTION ( 'NONE',  ( -3.491481338843133355E-15, 1.224646799147353207E-16, -1.000000000000000000 ) ) ;
#90 = VERTEX_POINT ( 'NONE', #187 ) ;
#91 = PERSON_AND_ORGANIZATION_ROLE ( 'design_supplier' ) ;
#92 = CC_DESIGN_PERSON_AND_ORGANIZATION_ASSIGNMENT ( #223, #48, ( #213 ) ) ;
#93 = PERSON_AND_ORGANIZATION ( #61, #28 ) ;
#94 = CYLINDRICAL_SURFACE ( 'NONE', #248, 25.00000000000000000 ) ;
#95 = PERSON_AND_ORGANIZATION ( #61, #28 ) ;
#96 = CIRCLE ( 'NONE', #113, 11.00000000000000000 ) ;
#97 = PERSON_AND_ORGANIZATION_ROLE ( 'design_owner' ) ;
#98 = MANIFOLD_SOLID_BREP ( 'Corps-Déplacer/Copier1', #209 ) ;
#99 = CIRCLE ( 'NONE', #233, 25.00000000000000000 ) ;
#100 = SHAPE_DEFINITION_REPRESENTATION ( #70, #164 ) ;
#101 = AXIS2_PLACEMENT_3D ( 'NONE', #190, #39, #170 ) ;
#102 = EDGE_CURVE ( 'NONE', #12, #12, #99, .T. ) ;
#103 = FACE_OUTER_BOUND ( 'NONE', #65, .T. ) ;
#104 = DIRECTION ( 'NONE',  ( 4.275564476539663594E-31, 1.000000000000000000, 1.225148454908620010E-16 ) ) ;
#105 = VERTEX_POINT ( 'NONE', #176 ) ;
#106 = EDGE_LOOP ( 'NONE', ( #237 ) ) ;
#107 = AXIS2_PLACEMENT_3D ( 'NONE', #219, #212, #123 ) ;
#108 = DIRECTION ( 'NONE',  ( 4.314083075427408311E-31, 1.000000000000000000, 1.214306433183764966E-16 ) ) ;
#109 = CARTESIAN_POINT ( 'NONE',  ( 2.688440630909196354E-15, -9.429780353434561837E-17, 0.7699999999999952438 ) ) ;
#110 = ORIENTED_EDGE ( 'NONE', *, *, #74, .T. ) ;
#111 = CIRCLE ( 'NONE', #247, 11.00000000000000000 ) ;
#112 = APPROVAL_ROLE ( '' ) ;
#113 = AXIS2_PLACEMENT_3D ( 'NONE', #76, #116, #166 ) ;
#114 = DIRECTION ( 'NONE',  ( -3.491481338843133355E-15, 1.224646799147353207E-16, -1.000000000000000000 ) ) ;
#115 = DATE_AND_TIME ( #202, #149 ) ;
#116 = DIRECTION ( 'NONE',  ( -3.491481338843133355E-15, 1.224646799147353207E-16, -1.000000000000000000 ) ) ;
#117 = MECHANICAL_CONTEXT ( 'NONE', #30, 'mechanical' ) ;
#118 = CARTESIAN_POINT ( 'NONE',  ( 9.842226297192439316E-30, 25.00000000000000000, 2.818925648462311528E-15 ) ) ;
#119 = SECURITY_CLASSIFICATION ( '', '', #241 ) ;
#120 = CC_DESIGN_PERSON_AND_ORGANIZATION_ASSIGNMENT ( #95, #91, ( #9 ) ) ;
#121 = APPROVAL ( #205, 'UNSPECIFIED' ) ;
#122 = ADVANCED_FACE ( 'NONE', ( #24, #200 ), #54, .F. ) ;
#123 = DIRECTION ( 'NONE',  ( -4.275831445896958607E-31, -1.000000000000000000, -1.224646799147353207E-16 ) ) ;
#124 = CARTESIAN_POINT ( 'NONE',  ( 2.793185071074502740E-15, -9.797174393178811359E-17, 0.7999999999999988232 ) ) ;
#125 = ORIENTED_EDGE ( 'NONE', *, *, #37, .F. ) ;
#126 = DIRECTION ( 'NONE',  ( 4.275831445896957731E-31, 1.000000000000000000, 1.224646799147353207E-16 ) ) ;
#127 = ORIENTED_EDGE ( 'NONE', *, *, #74, .F. ) ;
#128 = CYLINDRICAL_SURFACE ( 'NONE', #4, 40.00000000000000000 ) ;
#129 = AXIS2_PLACEMENT_3D ( 'NONE', #71, #77, #239 ) ;
#130 = COORDINATED_UNIVERSAL_TIME_OFFSET ( 1, 0, .AHEAD. ) ;
#131 = DIRECTION ( 'NONE',  ( 4.275831445896958607E-31, 1.000000000000000000, 1.224646799147353207E-16 ) ) ;
#132 = APPROVAL ( #189, 'UNSPECIFIED' ) ;
#133 =( GEOMETRIC_REPRESENTATION_CONTEXT ( 3 ) GLOBAL_UNCERTAINTY_ASSIGNED_CONTEXT ( ( #204 ) ) GLOBAL_UNIT_ASSIGNED_CONTEXT ( ( #168, #15, #49 ) ) REPRESENTATION_CONTEXT ( 'NONE', 'WORKASPACE' ) );
#134 = DATE_AND_TIME ( #172, #231 ) ;
#135 = FACE_BOUND ( 'NONE', #25, .T. ) ;
#136 = CARTESIAN_POINT ( 'NONE',  ( 0.0000000000000000000, 0.0000000000000000000, 0.0000000000000000000 ) ) ;
#137 = AXIS2_PLACEMENT_3D ( 'NONE', #81, #150, #3 ) ;
#138 = CARTESIAN_POINT ( 'NONE',  ( 2.688440630909207004E-15, 25.00000000000000000, 0.7699999999999983524 ) ) ;
#139 = ORIENTED_EDGE ( 'NONE', *, *, #51, .T. ) ;
#140 = EDGE_CURVE ( 'NONE', #90, #90, #38, .T. ) ;
#141 = ORIENTED_EDGE ( 'NONE', *, *, #140, .F. ) ;
#142 = DIRECTION ( 'NONE',  ( 4.314083075427408311E-31, 1.000000000000000000, 1.214306433183764966E-16 ) ) ;
#143 = PERSON_AND_ORGANIZATION ( #61, #28 ) ;
#144 = DIRECTION ( 'NONE',  ( -3.491481338843133355E-15, 1.224646799147353207E-16, -1.000000000000000000 ) ) ;
#145 = CALENDAR_DATE ( 2021, 7, 12 ) ;
#146 = AXIS2_PLACEMENT_3D ( 'NONE', #109, #21, #142 ) ;
#147 = PERSON_AND_ORGANIZATION ( #61, #28 ) ;
#148 = CARTESIAN_POINT ( 'NONE',  ( 0.0000000000000000000, 0.0000000000000000000, 0.0000000000000000000 ) ) ;
#149 = LOCAL_TIME ( 10, 46, 38.00000000000000000, #130 ) ;
#150 = DIRECTION ( 'NONE',  ( -3.491481338843133355E-15, 1.224646799147353207E-16, -1.000000000000000000 ) ) ;
#151 = DIRECTION ( 'NONE',  ( 4.275564476539663594E-31, 1.000000000000000000, 1.225148454908620010E-16 ) ) ;
#152 = CIRCLE ( 'NONE', #208, 25.00000000000000000 ) ;
#153 = ADVANCED_FACE ( 'NONE', ( #40, #155 ), #182, .F. ) ;
#154 = PLANE ( 'NONE',  #107 ) ;
#155 = FACE_OUTER_BOUND ( 'NONE', #159, .T. ) ;
#156 = CC_DESIGN_APPROVAL ( #210, ( #213 ) ) ;
#157 = CC_DESIGN_DATE_AND_TIME_ASSIGNMENT ( #185, #165, ( #213 ) ) ;
#158 = CARTESIAN_POINT ( 'NONE',  ( -6.596150416869815780E-30, 2.313618121009533520E-31, -1.889212565304840819E-15 ) ) ;
#159 = EDGE_LOOP ( 'NONE', ( #43 ) ) ;
#160 = CARTESIAN_POINT ( 'NONE',  ( 1.047444401653041055E-16, 25.00000000000000000, 0.03000000000000289935 ) ) ;
#161 = ORIENTED_EDGE ( 'NONE', *, *, #20, .T. ) ;
#162 = LOCAL_TIME ( 10, 46, 38.00000000000000000, #221 ) ;
#163 = AXIS2_PLACEMENT_3D ( 'NONE', #7, #89, #104 ) ;
#164 = ADVANCED_BREP_SHAPE_REPRESENTATION ( '60411', ( #98, #129 ), #133 ) ;
#165 = DATE_TIME_ROLE ( 'creation_date' ) ;
#166 = DIRECTION ( 'NONE',  ( 4.202028969572151271E-31, 1.000000000000000000, 1.182766006347823109E-16 ) ) ;
#167 = CARTESIAN_POINT ( 'NONE',  ( 0.0000000000000000000, 0.0000000000000000000, 0.0000000000000000000 ) ) ;
#168 =( LENGTH_UNIT ( ) NAMED_UNIT ( * ) SI_UNIT ( .MILLI., .METRE. ) );
#169 = CC_DESIGN_DATE_AND_TIME_ASSIGNMENT ( #55, #211, ( #119 ) ) ;
#170 = DIRECTION ( 'NONE',  ( 4.275831445896958607E-31, 1.000000000000000000, 1.224646799147353207E-16 ) ) ;
#171 = CIRCLE ( 'NONE', #62, 40.00000000000000000 ) ;
#172 = CALENDAR_DATE ( 2021, 7, 12 ) ;
#173 = APPROVAL_DATE_TIME ( #134, #132 ) ;
#174 = APPLICATION_CONTEXT ( 'configuration controlled 3d designs of mechanical parts and assemblies' ) ;
#175 = APPROVAL_PERSON_ORGANIZATION ( #93, #121, #27 ) ;
#176 = CARTESIAN_POINT ( 'NONE',  ( 2.793185071074500768E-15, 11.00000000000000000, 0.7999999999999982681 ) ) ;
#177 = EDGE_LOOP ( 'NONE', ( #22 ) ) ;
#178 = CC_DESIGN_APPROVAL ( #121, ( #9 ) ) ;
#179 = ORIENTED_EDGE ( 'NONE', *, *, #218, .F. ) ;
#180 = ORIENTED_EDGE ( 'NONE', *, *, #102, .F. ) ;
#181 = DIRECTION ( 'NONE',  ( -3.491481338843133355E-15, 1.224646799147353207E-16, -1.000000000000000000 ) ) ;
#182 = CONICAL_SURFACE ( 'NONE', #36, 40.00000000000000000, 1.568796329461556560 ) ;
#183 = DATE_AND_TIME ( #145, #191 ) ;
#184 = DIRECTION ( 'NONE',  ( 4.275831445896958607E-31, 1.000000000000000000, 1.224646799147353207E-16 ) ) ;
#185 = DATE_AND_TIME ( #69, #193 ) ;
#186 = DIRECTION ( 'NONE',  ( 4.275831445896958607E-31, 1.000000000000000000, 1.224646799147353207E-16 ) ) ;
#187 = CARTESIAN_POINT ( 'NONE',  ( 2.793185071074500768E-15, 25.00000000000000000, 0.7999999999999982681 ) ) ;
#188 = PRODUCT_RELATED_PRODUCT_CATEGORY ( 'detail', '', ( #230 ) ) ;
#189 = APPROVAL_STATUS ( 'not_yet_approved' ) ;
#190 = CARTESIAN_POINT ( 'NONE',  ( 6.967827247532509939E-30, 25.00000000000000000, 1.995665040512926876E-15 ) ) ;
#191 = LOCAL_TIME ( 10, 46, 38.00000000000000000, #75 ) ;
#192 = PERSON_AND_ORGANIZATION ( #61, #28 ) ;
#193 = LOCAL_TIME ( 10, 46, 38.00000000000000000, #52 ) ;
#194 = DIRECTION ( 'NONE',  ( -3.491481338843133355E-15, 1.224646799147353207E-16, -1.000000000000000000 ) ) ;
#195 = AXIS2_PLACEMENT_3D ( 'NONE', #199, #23, #108 ) ;
#196 = CC_DESIGN_PERSON_AND_ORGANIZATION_ASSIGNMENT ( #10, #13, ( #9 ) ) ;
#197 = DIRECTION ( 'NONE',  ( 4.275831445896957731E-31, 1.000000000000000000, 1.224646799147353207E-16 ) ) ;
#198 = EDGE_LOOP ( 'NONE', ( #125 ) ) ;
#199 = CARTESIAN_POINT ( 'NONE',  ( 2.793185071074490118E-15, -9.797174393178766986E-17, 0.7999999999999952704 ) ) ;
#200 = FACE_BOUND ( 'NONE', #198, .T. ) ;
#201 = ORIENTED_EDGE ( 'NONE', *, *, #140, .T. ) ;
#202 = CALENDAR_DATE ( 2021, 7, 12 ) ;
#203 = VERTEX_POINT ( 'NONE', #243 ) ;
#204 = UNCERTAINTY_MEASURE_WITH_UNIT (LENGTH_MEASURE( 1.000000000000000082E-05 ), #168, 'distance_accuracy_value', 'NONE');
#205 = APPROVAL_STATUS ( 'not_yet_approved' ) ;
#206 = FACE_OUTER_BOUND ( 'NONE', #215, .T. ) ;
#207 = PERSON_AND_ORGANIZATION ( #61, #28 ) ;
#208 = AXIS2_PLACEMENT_3D ( 'NONE', #11, #56, #151 ) ;
#209 = CLOSED_SHELL ( 'NONE', ( #46, #245, #240, #14, #153, #33, #122, #8 ) ) ;
#210 = APPROVAL ( #236, 'UNSPECIFIED' ) ;
#211 = DATE_TIME_ROLE ( 'classification_date' ) ;
#212 = DIRECTION ( 'NONE',  ( 3.491481338843133355E-15, -1.224646799147353207E-16, 1.000000000000000000 ) ) ;
#213 = PRODUCT_DEFINITION ( 'UNKNOWN', '', #9, #244 ) ;
#214 = APPROVAL_PERSON_ORGANIZATION ( #192, #132, #57 ) ;
#215 = EDGE_LOOP ( 'NONE', ( #17 ) ) ;
#216 = VERTEX_POINT ( 'NONE', #35 ) ;
#217 = CARTESIAN_POINT ( 'NONE',  ( 2.793185071074502740E-15, -9.797174393178811359E-17, 0.7999999999999988232 ) ) ;
#218 = EDGE_CURVE ( 'NONE', #203, #203, #111, .T. ) ;
#219 = CARTESIAN_POINT ( 'NONE',  ( 2.793185071074497612E-15, 11.00000000000000000, 0.7999999999999974909 ) ) ;
#220 = CC_DESIGN_SECURITY_CLASSIFICATION ( #119, ( #9 ) ) ;
#221 = COORDINATED_UNIVERSAL_TIME_OFFSET ( 1, 0, .AHEAD. ) ;
#222 = APPROVAL_DATE_TIME ( #115, #210 ) ;
#223 = PERSON_AND_ORGANIZATION ( #61, #28 ) ;
#224 = AXIS2_PLACEMENT_3D ( 'NONE', #78, #29, #131 ) ;
#225 = APPROVAL_DATE_TIME ( #183, #121 ) ;
#226 = FACE_OUTER_BOUND ( 'NONE', #88, .T. ) ;
#227 = COORDINATED_UNIVERSAL_TIME_OFFSET ( 1, 0, .AHEAD. ) ;
#228 = CC_DESIGN_PERSON_AND_ORGANIZATION_ASSIGNMENT ( #207, #97, ( #230 ) ) ;
#229 = FACE_OUTER_BOUND ( 'NONE', #106, .T. ) ;
#230 = PRODUCT ( '60411', '60411', '', ( #117 ) ) ;
#231 = LOCAL_TIME ( 10, 46, 38.00000000000000000, #227 ) ;
#232 = VERTEX_POINT ( 'NONE', #160 ) ;
#233 = AXIS2_PLACEMENT_3D ( 'NONE', #16, #85, #83 ) ;
#234 = EDGE_LOOP ( 'NONE', ( #201 ) ) ;
#235 = ORIENTED_EDGE ( 'NONE', *, *, #102, .T. ) ;
#236 = APPROVAL_STATUS ( 'not_yet_approved' ) ;
#237 = ORIENTED_EDGE ( 'NONE', *, *, #218, .T. ) ;
#238 = CIRCLE ( 'NONE', #137, 40.00000000000000000 ) ;
#239 = DIRECTION ( 'NONE',  ( 1.000000000000000000, 0.0000000000000000000, 0.0000000000000000000 ) ) ;
#240 = ADVANCED_FACE ( 'NONE', ( #249, #103 ), #154, .T. ) ;
#241 = SECURITY_CLASSIFICATION_LEVEL ( 'unclassified' ) ;
#242 = APPLICATION_PROTOCOL_DEFINITION ( 'international standard', 'config_control_design', 1994, #174 ) ;
#243 = CARTESIAN_POINT ( 'NONE',  ( -1.892735826383162188E-30, 11.00000000000000000, -5.421010862427524142E-16 ) ) ;
#244 = DESIGN_CONTEXT ( 'detailed design', #174, 'design' ) ;
#245 = ADVANCED_FACE ( 'NONE', ( #229, #60 ), #87, .F. ) ;
#246 = PLANE ( 'NONE',  #101 ) ;
#247 = AXIS2_PLACEMENT_3D ( 'NONE', #158, #194, #126 ) ;
#248 = AXIS2_PLACEMENT_3D ( 'NONE', #167, #144, #186 ) ;
#249 = FACE_BOUND ( 'NONE', #64, .T. ) ;
ENDSEC;
END-ISO-10303-21;
