ISO-10303-21;
HEADER;
FILE_DESCRIPTION (( 'STEP AP203' ),
    '1' );
FILE_NAME ('60410.step',
    '2021-12-07T09:46:37',
    ( '' ),
    ( '' ),
    'SwSTEP 2.0',
    'SolidWorks 2019',
    '' );
FILE_SCHEMA (( 'CONFIG_CONTROL_DESIGN' ));
ENDSEC;

DATA;
#1 = FACE_OUTER_BOUND ( 'NONE', #147, .T. ) ;
#2 = CARTESIAN_POINT ( 'NONE',  ( -1.710332578358783302E-29, 5.999039130647430431E-31, -4.898587196589413026E-15 ) ) ;
#3 = DIRECTION ( 'NONE',  ( 4.275831445896958607E-31, 1.000000000000000000, 1.224646799147353207E-16 ) ) ;
#4 = CC_DESIGN_APPROVAL ( #202, ( #195 ) ) ;
#5 = ADVANCED_FACE ( 'NONE', ( #108, #76 ), #193, .F. ) ;
#6 = CARTESIAN_POINT ( 'NONE',  ( 9.842226297192439316E-30, 25.00000000000000000, 2.818925648462311528E-15 ) ) ;
#7 =( NAMED_UNIT ( * ) PLANE_ANGLE_UNIT ( ) SI_UNIT ( $, .RADIAN. ) );
#8 = APPROVAL_STATUS ( 'not_yet_approved' ) ;
#9 = COORDINATED_UNIVERSAL_TIME_OFFSET ( 1, 0, .AHEAD. ) ;
#10 = CARTESIAN_POINT ( 'NONE',  ( -1.892735826383162188E-30, 11.00000000000000000, -5.421010862427524142E-16 ) ) ;
#11 = AXIS2_PLACEMENT_3D ( 'NONE', #45, #216, #75 ) ;
#12 = ADVANCED_FACE ( 'NONE', ( #160, #56 ), #177, .F. ) ;
#13 = APPROVAL_STATUS ( 'not_yet_approved' ) ;
#14 = ORIENTED_EDGE ( 'NONE', *, *, #244, .F. ) ;
#15 = DATE_AND_TIME ( #156, #32 ) ;
#16 = EDGE_LOOP ( 'NONE', ( #106 ) ) ;
#17 = CALENDAR_DATE ( 2021, 7, 12 ) ;
#18 = FACE_OUTER_BOUND ( 'NONE', #197, .T. ) ;
#19 = DIRECTION ( 'NONE',  ( -3.491481338843133355E-15, 1.224646799147353207E-16, -1.000000000000000000 ) ) ;
#20 = EDGE_LOOP ( 'NONE', ( #34 ) ) ;
#21 = PRODUCT_DEFINITION_SHAPE ( 'NONE', 'NONE',  #66 ) ;
#22 = AXIS2_PLACEMENT_3D ( 'NONE', #85, #221, #30 ) ;
#23 = ADVANCED_FACE ( 'NONE', ( #172, #242 ), #70, .T. ) ;
#24 = CARTESIAN_POINT ( 'NONE',  ( -8.473523175499575505E-31, 2.972111842308975202E-32, -2.426913494060716621E-16 ) ) ;
#25 = CARTESIAN_POINT ( 'NONE',  ( 0.0000000000000000000, 0.0000000000000000000, 0.0000000000000000000 ) ) ;
#26 = ORIENTED_EDGE ( 'NONE', *, *, #144, .F. ) ;
#27 = DIRECTION ( 'NONE',  ( 4.314083075427408311E-31, 1.000000000000000000, 1.214306433183764966E-16 ) ) ;
#28 = AXIS2_PLACEMENT_3D ( 'NONE', #228, #19, #210 ) ;
#29 = VERTEX_POINT ( 'NONE', #206 ) ;
#30 = DIRECTION ( 'NONE',  ( 1.000000000000000000, 0.0000000000000000000, 0.0000000000000000000 ) ) ;
#31 = PERSON_AND_ORGANIZATION ( #227, #55 ) ;
#32 = LOCAL_TIME ( 10, 46, 37.00000000000000000, #69 ) ;
#33 = APPROVAL ( #135, 'UNSPECIFIED' ) ;
#34 = ORIENTED_EDGE ( 'NONE', *, *, #86, .T. ) ;
#35 = AXIS2_PLACEMENT_3D ( 'NONE', #155, #53, #214 ) ;
#36 = ORIENTED_EDGE ( 'NONE', *, *, #144, .T. ) ;
#37 = PERSON_AND_ORGANIZATION ( #227, #55 ) ;
#38 = DIRECTION ( 'NONE',  ( 3.491481338843133355E-15, -1.224646799147353207E-16, 1.000000000000000000 ) ) ;
#39 = EDGE_CURVE ( 'NONE', #201, #201, #223, .T. ) ;
#40 = PLANE ( 'NONE',  #44 ) ;
#41 = ORIENTED_EDGE ( 'NONE', *, *, #244, .T. ) ;
#42 = DIRECTION ( 'NONE',  ( 4.275831445896958607E-31, 1.000000000000000000, 1.224646799147353207E-16 ) ) ;
#43 = LOCAL_TIME ( 10, 46, 37.00000000000000000, #240 ) ;
#44 = AXIS2_PLACEMENT_3D ( 'NONE', #81, #167, #79 ) ;
#45 = CARTESIAN_POINT ( 'NONE',  ( 0.0000000000000000000, 0.0000000000000000000, 0.0000000000000000000 ) ) ;
#46 = ADVANCED_FACE ( 'NONE', ( #1, #146 ), #40, .T. ) ;
#47 = CARTESIAN_POINT ( 'NONE',  ( 1.990144363140580727E-15, 25.00000000000000000, 0.5699999999999985079 ) ) ;
#48 = APPROVAL_PERSON_ORGANIZATION ( #37, #202, #51 ) ;
#49 = CC_DESIGN_PERSON_AND_ORGANIZATION_ASSIGNMENT ( #31, #113, ( #66 ) ) ;
#50 = CARTESIAN_POINT ( 'NONE',  ( 1.047444401653041055E-16, 25.00000000000000000, 0.03000000000000289935 ) ) ;
#51 = APPROVAL_ROLE ( '' ) ;
#52 = APPROVAL_DATE_TIME ( #93, #202 ) ;
#53 = DIRECTION ( 'NONE',  ( 3.491481338843133355E-15, -1.224646799147353207E-16, 1.000000000000000000 ) ) ;
#54 = ORIENTED_EDGE ( 'NONE', *, *, #96, .F. ) ;
#55 = ORGANIZATION ( 'UNSPECIFIED', 'UNSPECIFIED', '' ) ;
#56 = FACE_OUTER_BOUND ( 'NONE', #187, .T. ) ;
#57 = CC_DESIGN_APPROVAL ( #239, ( #66 ) ) ;
#58 = AXIS2_PLACEMENT_3D ( 'NONE', #194, #124, #62 ) ;
#59 = FACE_OUTER_BOUND ( 'NONE', #119, .T. ) ;
#60 = DIRECTION ( 'NONE',  ( -3.491481338843133355E-15, 1.224646799147353207E-16, -1.000000000000000000 ) ) ;
#61 = AXIS2_PLACEMENT_3D ( 'NONE', #63, #150, #217 ) ;
#62 = DIRECTION ( 'NONE',  ( 4.275831445896957731E-31, 1.000000000000000000, 1.224646799147353207E-16 ) ) ;
#63 = CARTESIAN_POINT ( 'NONE',  ( 1.047444401652934189E-16, -3.673940397442039160E-18, 0.02999999999999983583 ) ) ;
#64 = PERSON_AND_ORGANIZATION_ROLE ( 'design_owner' ) ;
#65 = CIRCLE ( 'NONE', #241, 11.00000000000000000 ) ;
#66 = PRODUCT_DEFINITION ( 'UNKNOWN', '', #195, #112 ) ;
#67 = CALENDAR_DATE ( 2021, 7, 12 ) ;
#68 = DATE_AND_TIME ( #88, #102 ) ;
#69 = COORDINATED_UNIVERSAL_TIME_OFFSET ( 1, 0, .AHEAD. ) ;
#70 = PLANE ( 'NONE',  #35 ) ;
#71 = ORIENTED_EDGE ( 'NONE', *, *, #123, .T. ) ;
#72 = DATE_TIME_ROLE ( 'creation_date' ) ;
#73 = EDGE_LOOP ( 'NONE', ( #71 ) ) ;
#74 = SHAPE_DEFINITION_REPRESENTATION ( #21, #198 ) ;
#75 = DIRECTION ( 'NONE',  ( 4.275831445896958607E-31, 1.000000000000000000, 1.224646799147353207E-16 ) ) ;
#76 = FACE_OUTER_BOUND ( 'NONE', #125, .T. ) ;
#77 = CC_DESIGN_APPROVAL ( #33, ( #236 ) ) ;
#78 = CIRCLE ( 'NONE', #219, 25.00000000000000000 ) ;
#79 = DIRECTION ( 'NONE',  ( 4.275831445896958607E-31, 1.000000000000000000, 1.224646799147353207E-16 ) ) ;
#80 = DIRECTION ( 'NONE',  ( -3.491481338843133355E-15, 1.224646799147353207E-16, -1.000000000000000000 ) ) ;
#81 = CARTESIAN_POINT ( 'NONE',  ( 6.967827247532509939E-30, 25.00000000000000000, 1.995665040512926876E-15 ) ) ;
#82 = CIRCLE ( 'NONE', #205, 40.00000000000000000 ) ;
#83 = DIRECTION ( 'NONE',  ( -3.491481338843133355E-15, 1.224646799147353207E-16, -1.000000000000000000 ) ) ;
#84 = VERTEX_POINT ( 'NONE', #199 ) ;
#85 = CARTESIAN_POINT ( 'NONE',  ( 0.0000000000000000000, 0.0000000000000000000, 0.0000000000000000000 ) ) ;
#86 = EDGE_CURVE ( 'NONE', #235, #235, #237, .T. ) ;
#87 = COORDINATED_UNIVERSAL_TIME_OFFSET ( 1, 0, .AHEAD. ) ;
#88 = CALENDAR_DATE ( 2021, 7, 12 ) ;
#89 = APPROVAL_ROLE ( '' ) ;
#90 = PERSON_AND_ORGANIZATION_ROLE ( 'creator' ) ;
#91 = AXIS2_PLACEMENT_3D ( 'NONE', #138, #38, #185 ) ;
#92 = ORIENTED_EDGE ( 'NONE', *, *, #39, .F. ) ;
#93 = DATE_AND_TIME ( #224, #43 ) ;
#94 = APPROVAL_PERSON_ORGANIZATION ( #171, #33, #122 ) ;
#95 = ORIENTED_EDGE ( 'NONE', *, *, #39, .T. ) ;
#96 = EDGE_CURVE ( 'NONE', #148, #148, #182, .T. ) ;
#97 = CYLINDRICAL_SURFACE ( 'NONE', #11, 25.00000000000000000 ) ;
#98 = EDGE_LOOP ( 'NONE', ( #26 ) ) ;
#99 = CARTESIAN_POINT ( 'NONE',  ( 2.094888803305870547E-15, -7.347880794884085716E-17, 0.5999999999999972022 ) ) ;
#100 = DIRECTION ( 'NONE',  ( -3.491481338843133355E-15, 1.224646799147353207E-16, -1.000000000000000000 ) ) ;
#101 = APPLICATION_CONTEXT ( 'configuration controlled 3d designs of mechanical parts and assemblies' ) ;
#102 = LOCAL_TIME ( 10, 46, 37.00000000000000000, #9 ) ;
#103 = AXIS2_PLACEMENT_3D ( 'NONE', #2, #163, #107 ) ;
#104 = DIRECTION ( 'NONE',  ( 4.275831445896958607E-31, 1.000000000000000000, 1.224646799147353207E-16 ) ) ;
#105 = CARTESIAN_POINT ( 'NONE',  ( 0.0000000000000000000, 0.0000000000000000000, 0.0000000000000000000 ) ) ;
#106 = ORIENTED_EDGE ( 'NONE', *, *, #123, .F. ) ;
#107 = DIRECTION ( 'NONE',  ( 4.275831445896958607E-31, 1.000000000000000000, 1.224646799147353207E-16 ) ) ;
#108 = FACE_OUTER_BOUND ( 'NONE', #20, .T. ) ;
#109 = APPLICATION_CONTEXT ( 'configuration controlled 3d designs of mechanical parts and assemblies' ) ;
#110 = CC_DESIGN_PERSON_AND_ORGANIZATION_ASSIGNMENT ( #137, #246, ( #195 ) ) ;
#111 = CARTESIAN_POINT ( 'NONE',  ( 2.094888803305875280E-15, 25.00000000000000000, 0.5999999999999985345 ) ) ;
#112 = DESIGN_CONTEXT ( 'detailed design', #109, 'design' ) ;
#113 = PERSON_AND_ORGANIZATION_ROLE ( 'creator' ) ;
#114 =( GEOMETRIC_REPRESENTATION_CONTEXT ( 3 ) GLOBAL_UNCERTAINTY_ASSIGNED_CONTEXT ( ( #220 ) ) GLOBAL_UNIT_ASSIGNED_CONTEXT ( ( #218, #7, #234 ) ) REPRESENTATION_CONTEXT ( 'NONE', 'WORKASPACE' ) );
#115 = DIRECTION ( 'NONE',  ( 4.237045877651918877E-31, 1.000000000000000000, 1.219727444046192488E-16 ) ) ;
#116 = CC_DESIGN_DATE_AND_TIME_ASSIGNMENT ( #121, #186, ( #236 ) ) ;
#117 = PERSON_AND_ORGANIZATION ( #227, #55 ) ;
#118 = AXIS2_PLACEMENT_3D ( 'NONE', #105, #83, #42 ) ;
#119 = EDGE_LOOP ( 'NONE', ( #243 ) ) ;
#120 = CIRCLE ( 'NONE', #103, 40.00000000000000000 ) ;
#121 = DATE_AND_TIME ( #17, #140 ) ;
#122 = APPROVAL_ROLE ( '' ) ;
#123 = EDGE_CURVE ( 'NONE', #238, #238, #229, .T. ) ;
#124 = DIRECTION ( 'NONE',  ( -3.491481338843133355E-15, 1.224646799147353207E-16, -1.000000000000000000 ) ) ;
#125 = EDGE_LOOP ( 'NONE', ( #139 ) ) ;
#126 = DIRECTION ( 'NONE',  ( -3.491481338843133355E-15, 1.224646799147353207E-16, -1.000000000000000000 ) ) ;
#127 = PRODUCT ( '60410', '60410', '', ( #179 ) ) ;
#128 = CLOSED_SHELL ( 'NONE', ( #46, #5, #23, #162, #12, #215, #248, #189 ) ) ;
#129 = CARTESIAN_POINT ( 'NONE',  ( 1.990144363140569683E-15, -6.980486755139858381E-17, 0.5699999999999953992 ) ) ;
#130 = CARTESIAN_POINT ( 'NONE',  ( 2.094888803305875280E-15, 11.00000000000000000, 0.5999999999999985345 ) ) ;
#131 = AXIS2_PLACEMENT_3D ( 'NONE', #249, #213, #27 ) ;
#132 = APPLICATION_PROTOCOL_DEFINITION ( 'international standard', 'config_control_design', 1994, #101 ) ;
#133 = FACE_BOUND ( 'NONE', #247, .T. ) ;
#134 = EDGE_CURVE ( 'NONE', #168, #168, #78, .T. ) ;
#135 = APPROVAL_STATUS ( 'not_yet_approved' ) ;
#136 = ORIENTED_EDGE ( 'NONE', *, *, #86, .F. ) ;
#137 = PERSON_AND_ORGANIZATION ( #227, #55 ) ;
#138 = CARTESIAN_POINT ( 'NONE',  ( 2.094888803305880408E-15, -7.347880794884120229E-17, 0.6000000000000001998 ) ) ;
#139 = ORIENTED_EDGE ( 'NONE', *, *, #226, .F. ) ;
#140 = LOCAL_TIME ( 10, 46, 37.00000000000000000, #190 ) ;
#141 = CYLINDRICAL_SURFACE ( 'NONE', #118, 40.00000000000000000 ) ;
#142 = CARTESIAN_POINT ( 'NONE',  ( 0.0000000000000000000, 0.0000000000000000000, 0.0000000000000000000 ) ) ;
#143 = DIRECTION ( 'NONE',  ( 4.202028969572151271E-31, 1.000000000000000000, 1.182766006347823109E-16 ) ) ;
#144 = EDGE_CURVE ( 'NONE', #29, #29, #120, .T. ) ;
#145 = AXIS2_PLACEMENT_3D ( 'NONE', #25, #60, #3 ) ;
#146 = FACE_BOUND ( 'NONE', #173, .T. ) ;
#147 = EDGE_LOOP ( 'NONE', ( #209 ) ) ;
#148 = VERTEX_POINT ( 'NONE', #47 ) ;
#149 = VERTEX_POINT ( 'NONE', #130 ) ;
#150 = DIRECTION ( 'NONE',  ( -3.491481338843133355E-15, 1.224646799147353207E-16, -1.000000000000000000 ) ) ;
#151 = DATE_AND_TIME ( #67, #181 ) ;
#152 = CC_DESIGN_PERSON_AND_ORGANIZATION_ASSIGNMENT ( #233, #64, ( #127 ) ) ;
#153 = PERSON_AND_ORGANIZATION ( #227, #55 ) ;
#154 = APPROVAL_DATE_TIME ( #15, #33 ) ;
#155 = CARTESIAN_POINT ( 'NONE',  ( 2.094888803305871730E-15, 11.00000000000000000, 0.5999999999999976463 ) ) ;
#156 = CALENDAR_DATE ( 2021, 7, 12 ) ;
#157 = EDGE_LOOP ( 'NONE', ( #36 ) ) ;
#158 = AXIS2_PLACEMENT_3D ( 'NONE', #142, #100, #176 ) ;
#159 = PERSON_AND_ORGANIZATION ( #227, #55 ) ;
#160 = FACE_BOUND ( 'NONE', #192, .T. ) ;
#161 = ORIENTED_EDGE ( 'NONE', *, *, #96, .T. ) ;
#162 = ADVANCED_FACE ( 'NONE', ( #191, #18 ), #97, .T. ) ;
#163 = DIRECTION ( 'NONE',  ( -3.491481338843133355E-15, 1.224646799147353207E-16, -1.000000000000000000 ) ) ;
#164 = FACE_OUTER_BOUND ( 'NONE', #225, .T. ) ;
#165 = CC_DESIGN_PERSON_AND_ORGANIZATION_ASSIGNMENT ( #159, #90, ( #195 ) ) ;
#166 = FACE_OUTER_BOUND ( 'NONE', #231, .T. ) ;
#167 = DIRECTION ( 'NONE',  ( -3.491481338843133355E-15, 1.224646799147353207E-16, -1.000000000000000000 ) ) ;
#168 = VERTEX_POINT ( 'NONE', #6 ) ;
#169 = CONICAL_SURFACE ( 'NONE', #61, 25.00000000000000000, 1.568796329461556560 ) ;
#170 = CARTESIAN_POINT ( 'NONE',  ( 2.094888803305880408E-15, -7.347880794884120229E-17, 0.6000000000000001998 ) ) ;
#171 = PERSON_AND_ORGANIZATION ( #227, #55 ) ;
#172 = FACE_BOUND ( 'NONE', #211, .T. ) ;
#173 = EDGE_LOOP ( 'NONE', ( #136 ) ) ;
#174 = ORIENTED_EDGE ( 'NONE', *, *, #226, .T. ) ;
#175 = DIRECTION ( 'NONE',  ( -3.491481338843133355E-15, 1.224646799147353207E-16, -1.000000000000000000 ) ) ;
#176 = DIRECTION ( 'NONE',  ( 4.275831445896957731E-31, 1.000000000000000000, 1.224646799147353207E-16 ) ) ;
#177 = CONICAL_SURFACE ( 'NONE', #91, 40.00000000000000000, 1.568796329461556560 ) ;
#178 = CYLINDRICAL_SURFACE ( 'NONE', #145, 25.00000000000000000 ) ;
#179 = MECHANICAL_CONTEXT ( 'NONE', #101, 'mechanical' ) ;
#180 = APPLICATION_PROTOCOL_DEFINITION ( 'international standard', 'config_control_design', 1994, #109 ) ;
#181 = LOCAL_TIME ( 10, 46, 37.00000000000000000, #87 ) ;
#182 = CIRCLE ( 'NONE', #200, 25.00000000000000000 ) ;
#183 = FACE_OUTER_BOUND ( 'NONE', #157, .T. ) ;
#184 = CC_DESIGN_PERSON_AND_ORGANIZATION_ASSIGNMENT ( #117, #188, ( #236 ) ) ;
#185 = DIRECTION ( 'NONE',  ( -4.237045877651918877E-31, -1.000000000000000000, -1.219727444046192488E-16 ) ) ;
#186 = DATE_TIME_ROLE ( 'classification_date' ) ;
#187 = EDGE_LOOP ( 'NONE', ( #14 ) ) ;
#188 = PERSON_AND_ORGANIZATION_ROLE ( 'classification_officer' ) ;
#189 = ADVANCED_FACE ( 'NONE', ( #166, #59 ), #178, .T. ) ;
#190 = COORDINATED_UNIVERSAL_TIME_OFFSET ( 1, 0, .AHEAD. ) ;
#191 = FACE_OUTER_BOUND ( 'NONE', #73, .T. ) ;
#192 = EDGE_LOOP ( 'NONE', ( #161 ) ) ;
#193 = CYLINDRICAL_SURFACE ( 'NONE', #158, 11.00000000000000000 ) ;
#194 = CARTESIAN_POINT ( 'NONE',  ( -6.596150416869815780E-30, 2.313618121009533520E-31, -1.889212565304840819E-15 ) ) ;
#195 = PRODUCT_DEFINITION_FORMATION_WITH_SPECIFIED_SOURCE ( 'ANY', '', #127, .NOT_KNOWN. ) ;
#196 = DIRECTION ( 'NONE',  ( 4.314083075427408311E-31, 1.000000000000000000, 1.214306433183764966E-16 ) ) ;
#197 = EDGE_LOOP ( 'NONE', ( #54 ) ) ;
#198 = ADVANCED_BREP_SHAPE_REPRESENTATION ( '60410', ( #245, #22 ), #114 ) ;
#199 = CARTESIAN_POINT ( 'NONE',  ( 2.094888803305897368E-15, 40.00000000000000000, 0.6000000000000050848 ) ) ;
#200 = AXIS2_PLACEMENT_3D ( 'NONE', #129, #126, #196 ) ;
#201 = VERTEX_POINT ( 'NONE', #50 ) ;
#202 = APPROVAL ( #13, 'UNSPECIFIED' ) ;
#203 = DIRECTION ( 'NONE',  ( -3.491481338843133355E-15, 1.224646799147353207E-16, -1.000000000000000000 ) ) ;
#204 = APPROVAL_DATE_TIME ( #151, #239 ) ;
#205 = AXIS2_PLACEMENT_3D ( 'NONE', #170, #203, #115 ) ;
#206 = CARTESIAN_POINT ( 'NONE',  ( 0.0000000000000000000, 40.00000000000000000, 0.0000000000000000000 ) ) ;
#207 = PRODUCT_RELATED_PRODUCT_CATEGORY ( 'detail', '', ( #127 ) ) ;
#208 = SECURITY_CLASSIFICATION_LEVEL ( 'unclassified' ) ;
#209 = ORIENTED_EDGE ( 'NONE', *, *, #134, .T. ) ;
#210 = DIRECTION ( 'NONE',  ( 4.275564476539663594E-31, 1.000000000000000000, 1.225148454908620010E-16 ) ) ;
#211 = EDGE_LOOP ( 'NONE', ( #174 ) ) ;
#212 = CC_DESIGN_DATE_AND_TIME_ASSIGNMENT ( #68, #72, ( #66 ) ) ;
#213 = DIRECTION ( 'NONE',  ( -3.491481338843133355E-15, 1.224646799147353207E-16, -1.000000000000000000 ) ) ;
#214 = DIRECTION ( 'NONE',  ( -4.275831445896958607E-31, -1.000000000000000000, -1.224646799147353207E-16 ) ) ;
#215 = ADVANCED_FACE ( 'NONE', ( #164, #230 ), #141, .T. ) ;
#216 = DIRECTION ( 'NONE',  ( -3.491481338843133355E-15, 1.224646799147353207E-16, -1.000000000000000000 ) ) ;
#217 = DIRECTION ( 'NONE',  ( 4.275564476539663594E-31, 1.000000000000000000, 1.225148454908620010E-16 ) ) ;
#218 =( LENGTH_UNIT ( ) NAMED_UNIT ( * ) SI_UNIT ( .MILLI., .METRE. ) );
#219 = AXIS2_PLACEMENT_3D ( 'NONE', #24, #80, #104 ) ;
#220 = UNCERTAINTY_MEASURE_WITH_UNIT (LENGTH_MEASURE( 1.000000000000000082E-05 ), #218, 'distance_accuracy_value', 'NONE');
#221 = DIRECTION ( 'NONE',  ( 0.0000000000000000000, 0.0000000000000000000, 1.000000000000000000 ) ) ;
#222 = APPROVAL_PERSON_ORGANIZATION ( #153, #239, #89 ) ;
#223 = CIRCLE ( 'NONE', #28, 25.00000000000000000 ) ;
#224 = CALENDAR_DATE ( 2021, 7, 12 ) ;
#225 = EDGE_LOOP ( 'NONE', ( #41 ) ) ;
#226 = EDGE_CURVE ( 'NONE', #149, #149, #65, .T. ) ;
#227 = PERSON ( 'UNSPECIFIED', 'UNSPECIFIED', 'UNSPECIFIED', ('UNSPECIFIED'), ('UNSPECIFIED'), ('UNSPECIFIED') ) ;
#228 = CARTESIAN_POINT ( 'NONE',  ( 1.047444401652934189E-16, -3.673940397442039160E-18, 0.02999999999999983583 ) ) ;
#229 = CIRCLE ( 'NONE', #131, 25.00000000000000000 ) ;
#230 = FACE_OUTER_BOUND ( 'NONE', #98, .T. ) ;
#231 = EDGE_LOOP ( 'NONE', ( #95 ) ) ;
#232 = CC_DESIGN_SECURITY_CLASSIFICATION ( #236, ( #195 ) ) ;
#233 = PERSON_AND_ORGANIZATION ( #227, #55 ) ;
#234 =( NAMED_UNIT ( * ) SI_UNIT ( $, .STERADIAN. ) SOLID_ANGLE_UNIT ( ) );
#235 = VERTEX_POINT ( 'NONE', #10 ) ;
#236 = SECURITY_CLASSIFICATION ( '', '', #208 ) ;
#237 = CIRCLE ( 'NONE', #58, 11.00000000000000000 ) ;
#238 = VERTEX_POINT ( 'NONE', #111 ) ;
#239 = APPROVAL ( #8, 'UNSPECIFIED' ) ;
#240 = COORDINATED_UNIVERSAL_TIME_OFFSET ( 1, 0, .AHEAD. ) ;
#241 = AXIS2_PLACEMENT_3D ( 'NONE', #99, #175, #143 ) ;
#242 = FACE_OUTER_BOUND ( 'NONE', #16, .T. ) ;
#243 = ORIENTED_EDGE ( 'NONE', *, *, #134, .F. ) ;
#244 = EDGE_CURVE ( 'NONE', #84, #84, #82, .T. ) ;
#245 = MANIFOLD_SOLID_BREP ( 'Corps-Déplacer/Copier1', #128 ) ;
#246 = PERSON_AND_ORGANIZATION_ROLE ( 'design_supplier' ) ;
#247 = EDGE_LOOP ( 'NONE', ( #92 ) ) ;
#248 = ADVANCED_FACE ( 'NONE', ( #183, #133 ), #169, .F. ) ;
#249 = CARTESIAN_POINT ( 'NONE',  ( 2.094888803305864236E-15, -7.347880794884064762E-17, 0.5999999999999955369 ) ) ;
ENDSEC;
END-ISO-10303-21;
