ISO-10303-21;
HEADER;
FILE_DESCRIPTION (( 'STEP AP203' ),
    '1' );
FILE_NAME ('60409.step',
    '2021-12-07T09:46:37',
    ( '' ),
    ( '' ),
    'SwSTEP 2.0',
    'SolidWorks 2019',
    '' );
FILE_SCHEMA (( 'CONFIG_CONTROL_DESIGN' ));
ENDSEC;

DATA;
#1 = DIRECTION ( 'NONE',  ( 1.000000000000000000, 0.0000000000000000000, 0.0000000000000000000 ) ) ;
#2 = CARTESIAN_POINT ( 'NONE',  ( 0.0000000000000000000, 0.0000000000000000000, 0.0000000000000000000 ) ) ;
#3 = CC_DESIGN_PERSON_AND_ORGANIZATION_ASSIGNMENT ( #24, #174, ( #127 ) ) ;
#4 = CALENDAR_DATE ( 2021, 7, 12 ) ;
#5 = AXIS2_PLACEMENT_3D ( 'NONE', #82, #52, #14 ) ;
#6 = CARTESIAN_POINT ( 'NONE',  ( 5.404602607112916870E-30, 20.00000000000000000, 1.547939708852540201E-15 ) ) ;
#7 = CARTESIAN_POINT ( 'NONE',  ( 3.386736898677833280E-15, 20.00000000000000000, 0.9699999999999983080 ) ) ;
#8 = EDGE_LOOP ( 'NONE', ( #207 ) ) ;
#9 = EDGE_CURVE ( 'NONE', #178, #178, #215, .T. ) ;
#10 = EDGE_LOOP ( 'NONE', ( #15 ) ) ;
#11 = DIRECTION ( 'NONE',  ( 3.491481338843133355E-15, -1.224646799147353207E-16, 1.000000000000000000 ) ) ;
#12 = CARTESIAN_POINT ( 'NONE',  ( 3.386736898677824603E-15, -1.187907395172927515E-16, 0.9699999999999958655 ) ) ;
#13 = DIRECTION ( 'NONE',  ( 4.237045877651918877E-31, 1.000000000000000000, 1.192622389734054877E-16 ) ) ;
#14 = DIRECTION ( 'NONE',  ( 4.275831445896958607E-31, 1.000000000000000000, 1.224646799147353207E-16 ) ) ;
#15 = ORIENTED_EDGE ( 'NONE', *, *, #90, .F. ) ;
#16 = AXIS2_PLACEMENT_3D ( 'NONE', #86, #145, #146 ) ;
#17 = PERSON_AND_ORGANIZATION ( #23, #60 ) ;
#18 = CARTESIAN_POINT ( 'NONE',  ( -1.309032188929878747E-29, 4.591466843368553588E-31, -3.749217200065612245E-15 ) ) ;
#19 = DIRECTION ( 'NONE',  ( -3.491481338843133355E-15, 1.224646799147353207E-16, -1.000000000000000000 ) ) ;
#20 = DATE_AND_TIME ( #196, #213 ) ;
#21 = PRODUCT_DEFINITION ( 'UNKNOWN', '', #127, #181 ) ;
#22 = CIRCLE ( 'NONE', #76, 20.00000000000000000 ) ;
#23 = PERSON ( 'UNSPECIFIED', 'UNSPECIFIED', 'UNSPECIFIED', ('UNSPECIFIED'), ('UNSPECIFIED'), ('UNSPECIFIED') ) ;
#24 = PERSON_AND_ORGANIZATION ( #23, #60 ) ;
#25 = PRODUCT_DEFINITION_SHAPE ( 'NONE', 'NONE',  #21 ) ;
#26 = DIRECTION ( 'NONE',  ( 4.275831445896958607E-31, 1.000000000000000000, 1.224646799147353207E-16 ) ) ;
#27 = CC_DESIGN_DATE_AND_TIME_ASSIGNMENT ( #141, #57, ( #240 ) ) ;
#28 = UNCERTAINTY_MEASURE_WITH_UNIT (LENGTH_MEASURE( 1.000000000000000082E-05 ), #219, 'distance_accuracy_value', 'NONE');
#29 = DIRECTION ( 'NONE',  ( -3.491481338843133355E-15, 1.224646799147353207E-16, -1.000000000000000000 ) ) ;
#30 = ADVANCED_FACE ( 'NONE', ( #85, #64 ), #124, .T. ) ;
#31 = CONICAL_SURFACE ( 'NONE', #69, 31.50000000000000000, 1.568187637060344475 ) ;
#32 = DIRECTION ( 'NONE',  ( -3.491481338843133355E-15, 1.224646799147353207E-16, -1.000000000000000000 ) ) ;
#33 = CIRCLE ( 'NONE', #175, 31.50000000000000000 ) ;
#34 = FACE_BOUND ( 'NONE', #165, .T. ) ;
#35 = CARTESIAN_POINT ( 'NONE',  ( 1.047444401652936777E-16, -3.673940397442048405E-18, 0.02999999999999990521 ) ) ;
#36 = AXIS2_PLACEMENT_3D ( 'NONE', #99, #29, #158 ) ;
#37 = AXIS2_PLACEMENT_3D ( 'NONE', #12, #163, #236 ) ;
#38 = PERSON_AND_ORGANIZATION ( #23, #60 ) ;
#39 = VERTEX_POINT ( 'NONE', #59 ) ;
#40 = ADVANCED_FACE ( 'NONE', ( #246, #248 ), #56, .T. ) ;
#41 = APPROVAL_PERSON_ORGANIZATION ( #114, #113, #195 ) ;
#42 = DATE_TIME_ROLE ( 'creation_date' ) ;
#43 = PERSON_AND_ORGANIZATION_ROLE ( 'design_owner' ) ;
#44 = APPLICATION_CONTEXT ( 'configuration controlled 3d designs of mechanical parts and assemblies' ) ;
#45 = APPROVAL_PERSON_ORGANIZATION ( #38, #209, #112 ) ;
#46 = DIRECTION ( 'NONE',  ( -3.491481338843133355E-15, 1.224646799147353207E-16, -1.000000000000000000 ) ) ;
#47 = VERTEX_POINT ( 'NONE', #203 ) ;
#48 = DIRECTION ( 'NONE',  ( -3.491481338843133355E-15, 1.224646799147353207E-16, -1.000000000000000000 ) ) ;
#49 = CC_DESIGN_DATE_AND_TIME_ASSIGNMENT ( #135, #42, ( #21 ) ) ;
#50 = FACE_BOUND ( 'NONE', #10, .T. ) ;
#51 = EDGE_LOOP ( 'NONE', ( #208 ) ) ;
#52 = DIRECTION ( 'NONE',  ( -3.491481338843133355E-15, 1.224646799147353207E-16, -1.000000000000000000 ) ) ;
#53 = ORIENTED_EDGE ( 'NONE', *, *, #9, .T. ) ;
#54 = EDGE_LOOP ( 'NONE', ( #201 ) ) ;
#55 = CIRCLE ( 'NONE', #110, 8.000000000000000000 ) ;
#56 = PLANE ( 'NONE',  #200 ) ;
#57 = DATE_TIME_ROLE ( 'classification_date' ) ;
#58 = CARTESIAN_POINT ( 'NONE',  ( 3.491481338843127439E-15, 20.00000000000000000, 0.9999999999999983347 ) ) ;
#59 = CARTESIAN_POINT ( 'NONE',  ( -2.271282991659793015E-30, 8.000000000000000000, -6.505213034913026604E-16 ) ) ;
#60 = ORGANIZATION ( 'UNSPECIFIED', 'UNSPECIFIED', '' ) ;
#61 = FACE_OUTER_BOUND ( 'NONE', #121, .T. ) ;
#62 = CIRCLE ( 'NONE', #224, 31.50000000000000000 ) ;
#63 = DIRECTION ( 'NONE',  ( -4.157563054550223109E-31, -1.000000000000000000, -1.239088197126290817E-16 ) ) ;
#64 = FACE_OUTER_BOUND ( 'NONE', #143, .T. ) ;
#65 = LOCAL_TIME ( 10, 46, 37.00000000000000000, #177 ) ;
#66 = DIRECTION ( 'NONE',  ( -3.491481338843133355E-15, 1.224646799147353207E-16, -1.000000000000000000 ) ) ;
#67 = EDGE_LOOP ( 'NONE', ( #230 ) ) ;
#68 = VERTEX_POINT ( 'NONE', #128 ) ;
#69 = AXIS2_PLACEMENT_3D ( 'NONE', #186, #11, #63 ) ;
#70 = FACE_OUTER_BOUND ( 'NONE', #103, .T. ) ;
#71 = DATE_AND_TIME ( #130, #122 ) ;
#72 = PRODUCT ( '60409', '60409', '', ( #138 ) ) ;
#73 = CARTESIAN_POINT ( 'NONE',  ( 7.949490470809277478E-30, 20.00000000000000000, 2.276824562219559311E-15 ) ) ;
#74 = CC_DESIGN_APPROVAL ( #209, ( #21 ) ) ;
#75 = PERSON_AND_ORGANIZATION_ROLE ( 'design_supplier' ) ;
#76 = AXIS2_PLACEMENT_3D ( 'NONE', #35, #19, #170 ) ;
#77 = DATE_AND_TIME ( #115, #65 ) ;
#78 = PERSON_AND_ORGANIZATION ( #23, #60 ) ;
#79 = CONICAL_SURFACE ( 'NONE', #140, 20.00000000000000000, 1.568187637060344253 ) ;
#80 = SECURITY_CLASSIFICATION_LEVEL ( 'unclassified' ) ;
#81 = EDGE_CURVE ( 'NONE', #47, #47, #33, .T. ) ;
#82 = CARTESIAN_POINT ( 'NONE',  ( 0.0000000000000000000, 0.0000000000000000000, 0.0000000000000000000 ) ) ;
#83 = ORIENTED_EDGE ( 'NONE', *, *, #81, .F. ) ;
#84 = EDGE_CURVE ( 'NONE', #68, #68, #62, .T. ) ;
#85 = FACE_OUTER_BOUND ( 'NONE', #101, .T. ) ;
#86 = CARTESIAN_POINT ( 'NONE',  ( 0.0000000000000000000, 0.0000000000000000000, 0.0000000000000000000 ) ) ;
#87 = ORIENTED_EDGE ( 'NONE', *, *, #231, .F. ) ;
#88 = CYLINDRICAL_SURFACE ( 'NONE', #16, 20.00000000000000000 ) ;
#89 = EDGE_LOOP ( 'NONE', ( #227 ) ) ;
#90 = EDGE_CURVE ( 'NONE', #148, #148, #22, .T. ) ;
#91 = ADVANCED_FACE ( 'NONE', ( #70, #34 ), #153, .T. ) ;
#92 = APPLICATION_CONTEXT ( 'configuration controlled 3d designs of mechanical parts and assemblies' ) ;
#93 = APPROVAL_DATE_TIME ( #20, #113 ) ;
#94 = AXIS2_PLACEMENT_3D ( 'NONE', #167, #48, #26 ) ;
#95 = APPLICATION_PROTOCOL_DEFINITION ( 'international standard', 'config_control_design', 1994, #92 ) ;
#96 = ADVANCED_FACE ( 'NONE', ( #225, #237 ), #31, .F. ) ;
#97 = CC_DESIGN_APPROVAL ( #113, ( #127 ) ) ;
#98 = VERTEX_POINT ( 'NONE', #58 ) ;
#99 = CARTESIAN_POINT ( 'NONE',  ( 0.0000000000000000000, 0.0000000000000000000, 0.0000000000000000000 ) ) ;
#100 = EDGE_LOOP ( 'NONE', ( #184 ) ) ;
#101 = EDGE_LOOP ( 'NONE', ( #179 ) ) ;
#102 = FACE_OUTER_BOUND ( 'NONE', #125, .T. ) ;
#103 = EDGE_LOOP ( 'NONE', ( #187 ) ) ;
#104 = FACE_OUTER_BOUND ( 'NONE', #89, .T. ) ;
#105 = DIRECTION ( 'NONE',  ( 4.275831445896958607E-31, 1.000000000000000000, 1.224646799147353207E-16 ) ) ;
#106 =( GEOMETRIC_REPRESENTATION_CONTEXT ( 3 ) GLOBAL_UNCERTAINTY_ASSIGNED_CONTEXT ( ( #28 ) ) GLOBAL_UNIT_ASSIGNED_CONTEXT ( ( #219, #134, #151 ) ) REPRESENTATION_CONTEXT ( 'NONE', 'WORKASPACE' ) );
#107 = DIRECTION ( 'NONE',  ( -3.491481338843133355E-15, 1.224646799147353207E-16, -1.000000000000000000 ) ) ;
#108 = AXIS2_PLACEMENT_3D ( 'NONE', #192, #107, #173 ) ;
#109 = DIRECTION ( 'NONE',  ( 4.275831445896958607E-31, 1.000000000000000000, 1.224646799147353207E-16 ) ) ;
#110 = AXIS2_PLACEMENT_3D ( 'NONE', #222, #139, #220 ) ;
#111 = CLOSED_SHELL ( 'NONE', ( #91, #119, #40, #155, #96, #30, #183, #244 ) ) ;
#112 = APPROVAL_ROLE ( '' ) ;
#113 = APPROVAL ( #156, 'UNSPECIFIED' ) ;
#114 = PERSON_AND_ORGANIZATION ( #23, #60 ) ;
#115 = CALENDAR_DATE ( 2021, 7, 12 ) ;
#116 = APPROVAL ( #210, 'UNSPECIFIED' ) ;
#117 = VERTEX_POINT ( 'NONE', #247 ) ;
#118 = CARTESIAN_POINT ( 'NONE',  ( 3.491481338843118761E-15, -1.224646799147348030E-16, 0.9999999999999958922 ) ) ;
#119 = ADVANCED_FACE ( 'NONE', ( #123, #102 ), #162, .F. ) ;
#120 = CYLINDRICAL_SURFACE ( 'NONE', #36, 20.00000000000000000 ) ;
#121 = EDGE_LOOP ( 'NONE', ( #239 ) ) ;
#122 = LOCAL_TIME ( 10, 46, 37.00000000000000000, #245 ) ;
#123 = FACE_OUTER_BOUND ( 'NONE', #67, .T. ) ;
#124 = CYLINDRICAL_SURFACE ( 'NONE', #108, 31.50000000000000000 ) ;
#125 = EDGE_LOOP ( 'NONE', ( #159 ) ) ;
#126 = MANIFOLD_SOLID_BREP ( 'Corps-Déplacer/Copier1', #111 ) ;
#127 = PRODUCT_DEFINITION_FORMATION_WITH_SPECIFIED_SOURCE ( 'ANY', '', #72, .NOT_KNOWN. ) ;
#128 = CARTESIAN_POINT ( 'NONE',  ( 3.785471652766336288E-31, 31.50000000000000000, 1.084202172485504434E-16 ) ) ;
#129 = DIRECTION ( 'NONE',  ( 3.491481338843133355E-15, -1.224646799147353207E-16, 1.000000000000000000 ) ) ;
#130 = CALENDAR_DATE ( 2021, 7, 12 ) ;
#131 = CC_DESIGN_APPROVAL ( #116, ( #240 ) ) ;
#132 = PERSON_AND_ORGANIZATION ( #23, #60 ) ;
#133 = CARTESIAN_POINT ( 'NONE',  ( 3.491481338843129017E-15, -1.224646799147351728E-16, 0.9999999999999986677 ) ) ;
#134 =( NAMED_UNIT ( * ) PLANE_ANGLE_UNIT ( ) SI_UNIT ( $, .RADIAN. ) );
#135 = DATE_AND_TIME ( #4, #218 ) ;
#136 = AXIS2_PLACEMENT_3D ( 'NONE', #241, #168, #185 ) ;
#137 = EDGE_CURVE ( 'NONE', #98, #98, #160, .T. ) ;
#138 = MECHANICAL_CONTEXT ( 'NONE', #44, 'mechanical' ) ;
#139 = DIRECTION ( 'NONE',  ( -3.491481338843133355E-15, 1.224646799147353207E-16, -1.000000000000000000 ) ) ;
#140 = AXIS2_PLACEMENT_3D ( 'NONE', #142, #164, #229 ) ;
#141 = DATE_AND_TIME ( #238, #221 ) ;
#142 = CARTESIAN_POINT ( 'NONE',  ( 1.047444401652936777E-16, -3.673940397442048405E-18, 0.02999999999999990521 ) ) ;
#143 = EDGE_LOOP ( 'NONE', ( #242 ) ) ;
#144 = FACE_OUTER_BOUND ( 'NONE', #8, .T. ) ;
#145 = DIRECTION ( 'NONE',  ( -3.491481338843133355E-15, 1.224646799147353207E-16, -1.000000000000000000 ) ) ;
#146 = DIRECTION ( 'NONE',  ( 4.275831445896958607E-31, 1.000000000000000000, 1.224646799147353207E-16 ) ) ;
#147 = EDGE_LOOP ( 'NONE', ( #87 ) ) ;
#148 = VERTEX_POINT ( 'NONE', #233 ) ;
#149 = DIRECTION ( 'NONE',  ( -3.491481338843133355E-15, 1.224646799147353207E-16, -1.000000000000000000 ) ) ;
#150 = CC_DESIGN_PERSON_AND_ORGANIZATION_ASSIGNMENT ( #132, #43, ( #72 ) ) ;
#151 =( NAMED_UNIT ( * ) SI_UNIT ( $, .STERADIAN. ) SOLID_ANGLE_UNIT ( ) );
#152 = CIRCLE ( 'NONE', #94, 20.00000000000000000 ) ;
#153 = PLANE ( 'NONE',  #176 ) ;
#154 = VERTEX_POINT ( 'NONE', #73 ) ;
#155 = ADVANCED_FACE ( 'NONE', ( #144, #61 ), #88, .T. ) ;
#156 = APPROVAL_STATUS ( 'not_yet_approved' ) ;
#157 = APPROVAL_DATE_TIME ( #77, #209 ) ;
#158 = DIRECTION ( 'NONE',  ( 4.275831445896958607E-31, 1.000000000000000000, 1.224646799147353207E-16 ) ) ;
#159 = ORIENTED_EDGE ( 'NONE', *, *, #198, .F. ) ;
#160 = CIRCLE ( 'NONE', #188, 20.00000000000000000 ) ;
#161 = PERSON_AND_ORGANIZATION_ROLE ( 'classification_officer' ) ;
#162 = CYLINDRICAL_SURFACE ( 'NONE', #5, 8.000000000000000000 ) ;
#163 = DIRECTION ( 'NONE',  ( -3.491481338843133355E-15, 1.224646799147353207E-16, -1.000000000000000000 ) ) ;
#164 = DIRECTION ( 'NONE',  ( -3.491481338843133355E-15, 1.224646799147353207E-16, -1.000000000000000000 ) ) ;
#165 = EDGE_LOOP ( 'NONE', ( #180 ) ) ;
#166 = CC_DESIGN_PERSON_AND_ORGANIZATION_ASSIGNMENT ( #235, #161, ( #240 ) ) ;
#167 = CARTESIAN_POINT ( 'NONE',  ( -6.021724209846391220E-31, 2.112136529814582656E-32, -1.724690360751470783E-16 ) ) ;
#168 = DIRECTION ( 'NONE',  ( -3.491481338843133355E-15, 1.224646799147353207E-16, -1.000000000000000000 ) ) ;
#169 = CARTESIAN_POINT ( 'NONE',  ( 3.491481338843125072E-15, 8.000000000000000000, 0.9999999999999976685 ) ) ;
#170 = DIRECTION ( 'NONE',  ( 4.273157064109179549E-31, 1.000000000000000000, 1.224809641729718290E-16 ) ) ;
#171 = AXIS2_PLACEMENT_3D ( 'NONE', #2, #197, #1 ) ;
#172 = PRODUCT_RELATED_PRODUCT_CATEGORY ( 'detail', '', ( #72 ) ) ;
#173 = DIRECTION ( 'NONE',  ( 4.275831445896958607E-31, 1.000000000000000000, 1.224646799147353207E-16 ) ) ;
#174 = PERSON_AND_ORGANIZATION_ROLE ( 'creator' ) ;
#175 = AXIS2_PLACEMENT_3D ( 'NONE', #133, #32, #189 ) ;
#176 = AXIS2_PLACEMENT_3D ( 'NONE', #6, #46, #105 ) ;
#177 = COORDINATED_UNIVERSAL_TIME_OFFSET ( 1, 0, .AHEAD. ) ;
#178 = VERTEX_POINT ( 'NONE', #7 ) ;
#179 = ORIENTED_EDGE ( 'NONE', *, *, #81, .T. ) ;
#180 = ORIENTED_EDGE ( 'NONE', *, *, #202, .F. ) ;
#181 = DESIGN_CONTEXT ( 'detailed design', #92, 'design' ) ;
#182 = ADVANCED_BREP_SHAPE_REPRESENTATION ( '60409', ( #126, #171 ), #106 ) ;
#183 = ADVANCED_FACE ( 'NONE', ( #104, #50 ), #79, .F. ) ;
#184 = ORIENTED_EDGE ( 'NONE', *, *, #137, .F. ) ;
#185 = DIRECTION ( 'NONE',  ( 3.851859888774471706E-31, 1.000000000000000000, 1.355252715606880543E-16 ) ) ;
#186 = CARTESIAN_POINT ( 'NONE',  ( 3.491481338843129017E-15, -1.224646799147351728E-16, 0.9999999999999986677 ) ) ;
#187 = ORIENTED_EDGE ( 'NONE', *, *, #231, .T. ) ;
#188 = AXIS2_PLACEMENT_3D ( 'NONE', #118, #66, #13 ) ;
#189 = DIRECTION ( 'NONE',  ( 4.157563054550223109E-31, 1.000000000000000000, 1.239088197126290817E-16 ) ) ;
#190 = APPROVAL_ROLE ( '' ) ;
#191 = CC_DESIGN_PERSON_AND_ORGANIZATION_ASSIGNMENT ( #78, #234, ( #21 ) ) ;
#192 = CARTESIAN_POINT ( 'NONE',  ( 0.0000000000000000000, 0.0000000000000000000, 0.0000000000000000000 ) ) ;
#193 = COORDINATED_UNIVERSAL_TIME_OFFSET ( 1, 0, .AHEAD. ) ;
#194 = APPROVAL_PERSON_ORGANIZATION ( #17, #116, #190 ) ;
#195 = APPROVAL_ROLE ( '' ) ;
#196 = CALENDAR_DATE ( 2021, 7, 12 ) ;
#197 = DIRECTION ( 'NONE',  ( 0.0000000000000000000, 0.0000000000000000000, 1.000000000000000000 ) ) ;
#198 = EDGE_CURVE ( 'NONE', #117, #117, #228, .T. ) ;
#199 = FACE_OUTER_BOUND ( 'NONE', #147, .T. ) ;
#200 = AXIS2_PLACEMENT_3D ( 'NONE', #169, #129, #211 ) ;
#201 = ORIENTED_EDGE ( 'NONE', *, *, #90, .T. ) ;
#202 = EDGE_CURVE ( 'NONE', #39, #39, #55, .T. ) ;
#203 = CARTESIAN_POINT ( 'NONE',  ( 3.491481338843142033E-15, 31.50000000000000000, 1.000000000000002665 ) ) ;
#204 = EDGE_LOOP ( 'NONE', ( #53 ) ) ;
#205 = CC_DESIGN_SECURITY_CLASSIFICATION ( #240, ( #127 ) ) ;
#206 = FACE_OUTER_BOUND ( 'NONE', #54, .T. ) ;
#207 = ORIENTED_EDGE ( 'NONE', *, *, #137, .T. ) ;
#208 = ORIENTED_EDGE ( 'NONE', *, *, #198, .T. ) ;
#209 = APPROVAL ( #216, 'UNSPECIFIED' ) ;
#210 = APPROVAL_STATUS ( 'not_yet_approved' ) ;
#211 = DIRECTION ( 'NONE',  ( -4.275831445896958607E-31, -1.000000000000000000, -1.224646799147353207E-16 ) ) ;
#212 = CC_DESIGN_PERSON_AND_ORGANIZATION_ASSIGNMENT ( #249, #75, ( #127 ) ) ;
#213 = LOCAL_TIME ( 10, 46, 37.00000000000000000, #193 ) ;
#214 = APPLICATION_PROTOCOL_DEFINITION ( 'international standard', 'config_control_design', 1994, #44 ) ;
#215 = CIRCLE ( 'NONE', #37, 20.00000000000000000 ) ;
#216 = APPROVAL_STATUS ( 'not_yet_approved' ) ;
#217 = COORDINATED_UNIVERSAL_TIME_OFFSET ( 1, 0, .AHEAD. ) ;
#218 = LOCAL_TIME ( 10, 46, 37.00000000000000000, #217 ) ;
#219 =( LENGTH_UNIT ( ) NAMED_UNIT ( * ) SI_UNIT ( .MILLI., .METRE. ) );
#220 = DIRECTION ( 'NONE',  ( 4.275831445896958607E-31, 1.000000000000000000, 1.224646799147353207E-16 ) ) ;
#221 = LOCAL_TIME ( 10, 46, 37.00000000000000000, #226 ) ;
#222 = CARTESIAN_POINT ( 'NONE',  ( -5.691948148377360250E-30, 1.996466658227274005E-31, -1.630238742809185226E-15 ) ) ;
#223 = EDGE_LOOP ( 'NONE', ( #83 ) ) ;
#224 = AXIS2_PLACEMENT_3D ( 'NONE', #18, #149, #109 ) ;
#225 = FACE_BOUND ( 'NONE', #204, .T. ) ;
#226 = COORDINATED_UNIVERSAL_TIME_OFFSET ( 1, 0, .AHEAD. ) ;
#227 = ORIENTED_EDGE ( 'NONE', *, *, #84, .T. ) ;
#228 = CIRCLE ( 'NONE', #136, 8.000000000000000000 ) ;
#229 = DIRECTION ( 'NONE',  ( 4.273157064109179549E-31, 1.000000000000000000, 1.224809641729718290E-16 ) ) ;
#230 = ORIENTED_EDGE ( 'NONE', *, *, #202, .T. ) ;
#231 = EDGE_CURVE ( 'NONE', #154, #154, #152, .T. ) ;
#232 = SHAPE_DEFINITION_REPRESENTATION ( #25, #182 ) ;
#233 = CARTESIAN_POINT ( 'NONE',  ( 1.047444401653022196E-16, 20.00000000000000000, 0.03000000000000235464 ) ) ;
#234 = PERSON_AND_ORGANIZATION_ROLE ( 'creator' ) ;
#235 = PERSON_AND_ORGANIZATION ( #23, #60 ) ;
#236 = DIRECTION ( 'NONE',  ( 4.237045877651918877E-31, 1.000000000000000000, 1.246832498358330099E-16 ) ) ;
#237 = FACE_OUTER_BOUND ( 'NONE', #223, .T. ) ;
#238 = CALENDAR_DATE ( 2021, 7, 12 ) ;
#239 = ORIENTED_EDGE ( 'NONE', *, *, #9, .F. ) ;
#240 = SECURITY_CLASSIFICATION ( '', '', #80 ) ;
#241 = CARTESIAN_POINT ( 'NONE',  ( 3.491481338843124283E-15, -1.224646799147350002E-16, 0.9999999999999974465 ) ) ;
#242 = ORIENTED_EDGE ( 'NONE', *, *, #84, .F. ) ;
#243 = APPROVAL_DATE_TIME ( #71, #116 ) ;
#244 = ADVANCED_FACE ( 'NONE', ( #206, #199 ), #120, .T. ) ;
#245 = COORDINATED_UNIVERSAL_TIME_OFFSET ( 1, 0, .AHEAD. ) ;
#246 = FACE_BOUND ( 'NONE', #51, .T. ) ;
#247 = CARTESIAN_POINT ( 'NONE',  ( 3.491481338843127439E-15, 8.000000000000000000, 0.9999999999999985567 ) ) ;
#248 = FACE_OUTER_BOUND ( 'NONE', #100, .T. ) ;
#249 = PERSON_AND_ORGANIZATION ( #23, #60 ) ;
ENDSEC;
END-ISO-10303-21;
