ISO-10303-21;
HEADER;
FILE_DESCRIPTION (( 'STEP AP203' ),
    '1' );
FILE_NAME ('60408.step',
    '2021-12-07T09:46:36',
    ( '' ),
    ( '' ),
    'SwSTEP 2.0',
    'SolidWorks 2019',
    '' );
FILE_SCHEMA (( 'CONFIG_CONTROL_DESIGN' ));
ENDSEC;

DATA;
#1 = EDGE_LOOP ( 'NONE', ( #222 ) ) ;
#2 = SECURITY_CLASSIFICATION_LEVEL ( 'unclassified' ) ;
#3 = CC_DESIGN_DATE_AND_TIME_ASSIGNMENT ( #75, #152, ( #162 ) ) ;
#4 = EDGE_LOOP ( 'NONE', ( #8 ) ) ;
#5 = EDGE_LOOP ( 'NONE', ( #163 ) ) ;
#6 = VERTEX_POINT ( 'NONE', #171 ) ;
#7 = AXIS2_PLACEMENT_3D ( 'NONE', #15, #77, #29 ) ;
#8 = ORIENTED_EDGE ( 'NONE', *, *, #133, .T. ) ;
#9 = CARTESIAN_POINT ( 'NONE',  ( 5.404602607112916870E-30, 20.00000000000000000, 1.547939708852540201E-15 ) ) ;
#10 = EDGE_CURVE ( 'NONE', #115, #115, #83, .T. ) ;
#11 = DIRECTION ( 'NONE',  ( -3.491481338843133355E-15, 1.224646799147353207E-16, -1.000000000000000000 ) ) ;
#12 = DIRECTION ( 'NONE',  ( -3.491481338843133355E-15, 1.224646799147353207E-16, -1.000000000000000000 ) ) ;
#13 = FACE_OUTER_BOUND ( 'NONE', #201, .T. ) ;
#14 = APPROVAL_STATUS ( 'not_yet_approved' ) ;
#15 = CARTESIAN_POINT ( 'NONE',  ( -1.309032188929878747E-29, 4.591466843368553588E-31, -3.749217200065612245E-15 ) ) ;
#16 = VERTEX_POINT ( 'NONE', #37 ) ;
#17 = SECURITY_CLASSIFICATION ( '', '', #2 ) ;
#18 = AXIS2_PLACEMENT_3D ( 'NONE', #172, #12, #32 ) ;
#19 = VERTEX_POINT ( 'NONE', #176 ) ;
#20 = PERSON ( 'UNSPECIFIED', 'UNSPECIFIED', 'UNSPECIFIED', ('UNSPECIFIED'), ('UNSPECIFIED'), ('UNSPECIFIED') ) ;
#21 = APPROVAL ( #25, 'UNSPECIFIED' ) ;
#22 = AXIS2_PLACEMENT_3D ( 'NONE', #110, #11, #136 ) ;
#23 = EDGE_LOOP ( 'NONE', ( #47 ) ) ;
#24 = APPROVAL ( #70, 'UNSPECIFIED' ) ;
#25 = APPROVAL_STATUS ( 'not_yet_approved' ) ;
#26 = CONICAL_SURFACE ( 'NONE', #145, 20.00000000000000000, 1.568187637060344253 ) ;
#27 =( NAMED_UNIT ( * ) PLANE_ANGLE_UNIT ( ) SI_UNIT ( $, .RADIAN. ) );
#28 = ORIENTED_EDGE ( 'NONE', *, *, #128, .T. ) ;
#29 = DIRECTION ( 'NONE',  ( 4.275831445896958607E-31, 1.000000000000000000, 1.224646799147353207E-16 ) ) ;
#30 = DESIGN_CONTEXT ( 'detailed design', #135, 'design' ) ;
#31 = DATE_AND_TIME ( #225, #59 ) ;
#32 = DIRECTION ( 'NONE',  ( 4.275831445896958607E-31, 1.000000000000000000, 1.224646799147353207E-16 ) ) ;
#33 = CARTESIAN_POINT ( 'NONE',  ( 2.688440630909199510E-15, -9.429780353434572931E-17, 0.7699999999999961320 ) ) ;
#34 = DIRECTION ( 'NONE',  ( -3.491481338843133355E-15, 1.224646799147353207E-16, -1.000000000000000000 ) ) ;
#35 = DIRECTION ( 'NONE',  ( 4.275831445896958607E-31, 1.000000000000000000, 1.224646799147353207E-16 ) ) ;
#36 = AXIS2_PLACEMENT_3D ( 'NONE', #167, #151, #54 ) ;
#37 = CARTESIAN_POINT ( 'NONE',  ( 2.793185071074516939E-15, 31.50000000000000000, 0.8000000000000029310 ) ) ;
#38 = DIRECTION ( 'NONE',  ( -3.491481338843133355E-15, 1.224646799147353207E-16, -1.000000000000000000 ) ) ;
#39 = AXIS2_PLACEMENT_3D ( 'NONE', #33, #111, #134 ) ;
#40 = CC_DESIGN_PERSON_AND_ORGANIZATION_ASSIGNMENT ( #142, #144, ( #157 ) ) ;
#41 = ORIENTED_EDGE ( 'NONE', *, *, #128, .F. ) ;
#42 = EDGE_CURVE ( 'NONE', #19, #19, #102, .T. ) ;
#43 = EDGE_LOOP ( 'NONE', ( #41 ) ) ;
#44 = PERSON_AND_ORGANIZATION_ROLE ( 'design_supplier' ) ;
#45 = PRODUCT_RELATED_PRODUCT_CATEGORY ( 'detail', '', ( #245 ) ) ;
#46 = PERSON_AND_ORGANIZATION_ROLE ( 'design_owner' ) ;
#47 = ORIENTED_EDGE ( 'NONE', *, *, #10, .T. ) ;
#48 = APPROVAL_ROLE ( '' ) ;
#49 = CYLINDRICAL_SURFACE ( 'NONE', #206, 8.000000000000000000 ) ;
#50 = AXIS2_PLACEMENT_3D ( 'NONE', #113, #34, #207 ) ;
#51 = CARTESIAN_POINT ( 'NONE',  ( 3.785471652766336288E-31, 31.50000000000000000, 1.084202172485504434E-16 ) ) ;
#52 = FACE_OUTER_BOUND ( 'NONE', #121, .T. ) ;
#53 =( LENGTH_UNIT ( ) NAMED_UNIT ( * ) SI_UNIT ( .MILLI., .METRE. ) );
#54 = DIRECTION ( 'NONE',  ( 4.279844320860524021E-31, 1.000000000000000000, 1.239088197126290817E-16 ) ) ;
#55 = CYLINDRICAL_SURFACE ( 'NONE', #190, 20.00000000000000000 ) ;
#56 =( GEOMETRIC_REPRESENTATION_CONTEXT ( 3 ) GLOBAL_UNCERTAINTY_ASSIGNED_CONTEXT ( ( #187 ) ) GLOBAL_UNIT_ASSIGNED_CONTEXT ( ( #53, #27, #131 ) ) REPRESENTATION_CONTEXT ( 'NONE', 'WORKASPACE' ) );
#57 = CYLINDRICAL_SURFACE ( 'NONE', #22, 31.50000000000000000 ) ;
#58 = MANIFOLD_SOLID_BREP ( 'Corps-Déplacer/Copier1', #233 ) ;
#59 = LOCAL_TIME ( 10, 46, 36.00000000000000000, #98 ) ;
#60 = CARTESIAN_POINT ( 'NONE',  ( 7.949490470809277478E-30, 20.00000000000000000, 2.276824562219559311E-15 ) ) ;
#61 = APPROVAL_DATE_TIME ( #155, #103 ) ;
#62 = LOCAL_TIME ( 10, 46, 36.00000000000000000, #73 ) ;
#63 = AXIS2_PLACEMENT_3D ( 'NONE', #169, #241, #97 ) ;
#64 = DATE_TIME_ROLE ( 'classification_date' ) ;
#65 = EDGE_LOOP ( 'NONE', ( #119 ) ) ;
#66 = DATE_AND_TIME ( #235, #236 ) ;
#67 = EDGE_LOOP ( 'NONE', ( #107 ) ) ;
#68 = EDGE_CURVE ( 'NONE', #216, #216, #160, .T. ) ;
#69 = EDGE_LOOP ( 'NONE', ( #164 ) ) ;
#70 = APPROVAL_STATUS ( 'not_yet_approved' ) ;
#71 = DIRECTION ( 'NONE',  ( -3.491481338843133355E-15, 1.224646799147353207E-16, -1.000000000000000000 ) ) ;
#72 = DIRECTION ( 'NONE',  ( -3.491481338843133355E-15, 1.224646799147353207E-16, -1.000000000000000000 ) ) ;
#73 = COORDINATED_UNIVERSAL_TIME_OFFSET ( 1, 0, .AHEAD. ) ;
#74 = FACE_OUTER_BOUND ( 'NONE', #105, .T. ) ;
#75 = DATE_AND_TIME ( #170, #62 ) ;
#76 = DIRECTION ( 'NONE',  ( 4.275831445896958607E-31, 1.000000000000000000, 1.224646799147353207E-16 ) ) ;
#77 = DIRECTION ( 'NONE',  ( -3.491481338843133355E-15, 1.224646799147353207E-16, -1.000000000000000000 ) ) ;
#78 = CIRCLE ( 'NONE', #39, 20.00000000000000000 ) ;
#79 = CALENDAR_DATE ( 2021, 7, 12 ) ;
#80 = DIRECTION ( 'NONE',  ( -4.279844320860524021E-31, -1.000000000000000000, -1.239088197126290817E-16 ) ) ;
#81 = APPROVAL_PERSON_ORGANIZATION ( #228, #103, #48 ) ;
#82 = COORDINATED_UNIVERSAL_TIME_OFFSET ( 1, 0, .AHEAD. ) ;
#83 = CIRCLE ( 'NONE', #18, 20.00000000000000000 ) ;
#84 = ORIENTED_EDGE ( 'NONE', *, *, #106, .F. ) ;
#85 = PERSON_AND_ORGANIZATION ( #20, #104 ) ;
#86 = ORIENTED_EDGE ( 'NONE', *, *, #42, .F. ) ;
#87 = ORIENTED_EDGE ( 'NONE', *, *, #68, .F. ) ;
#88 = CC_DESIGN_APPROVAL ( #21, ( #17 ) ) ;
#89 = EDGE_LOOP ( 'NONE', ( #87 ) ) ;
#90 = DIRECTION ( 'NONE',  ( 1.000000000000000000, 0.0000000000000000000, 0.0000000000000000000 ) ) ;
#91 = FACE_OUTER_BOUND ( 'NONE', #67, .T. ) ;
#92 = ADVANCED_FACE ( 'NONE', ( #212, #74 ), #224, .T. ) ;
#93 = FACE_BOUND ( 'NONE', #89, .T. ) ;
#94 = AXIS2_PLACEMENT_3D ( 'NONE', #210, #237, #211 ) ;
#95 = DIRECTION ( 'NONE',  ( 4.275831445896958607E-31, 1.000000000000000000, 1.224646799147353207E-16 ) ) ;
#96 = PERSON_AND_ORGANIZATION ( #20, #104 ) ;
#97 = DIRECTION ( 'NONE',  ( 4.237045877651918877E-31, 1.000000000000000000, 1.246832498358330099E-16 ) ) ;
#98 = COORDINATED_UNIVERSAL_TIME_OFFSET ( 1, 0, .AHEAD. ) ;
#99 = CARTESIAN_POINT ( 'NONE',  ( 0.0000000000000000000, 0.0000000000000000000, 0.0000000000000000000 ) ) ;
#100 = ADVANCED_FACE ( 'NONE', ( #186, #13 ), #49, .F. ) ;
#101 = CIRCLE ( 'NONE', #94, 8.000000000000000000 ) ;
#102 = CIRCLE ( 'NONE', #63, 20.00000000000000000 ) ;
#103 = APPROVAL ( #14, 'UNSPECIFIED' ) ;
#104 = ORGANIZATION ( 'UNSPECIFIED', 'UNSPECIFIED', '' ) ;
#105 = EDGE_LOOP ( 'NONE', ( #86 ) ) ;
#106 = EDGE_CURVE ( 'NONE', #16, #16, #175, .T. ) ;
#107 = ORIENTED_EDGE ( 'NONE', *, *, #188, .T. ) ;
#108 = APPLICATION_PROTOCOL_DEFINITION ( 'international standard', 'config_control_design', 1994, #135 ) ;
#109 = FACE_OUTER_BOUND ( 'NONE', #23, .T. ) ;
#110 = CARTESIAN_POINT ( 'NONE',  ( 0.0000000000000000000, 0.0000000000000000000, 0.0000000000000000000 ) ) ;
#111 = DIRECTION ( 'NONE',  ( -3.491481338843133355E-15, 1.224646799147353207E-16, -1.000000000000000000 ) ) ;
#112 = PERSON_AND_ORGANIZATION ( #20, #104 ) ;
#113 = CARTESIAN_POINT ( 'NONE',  ( 1.047444401652936777E-16, -3.673940397442048405E-18, 0.02999999999999990521 ) ) ;
#114 = FACE_OUTER_BOUND ( 'NONE', #1, .T. ) ;
#115 = VERTEX_POINT ( 'NONE', #60 ) ;
#116 = FACE_BOUND ( 'NONE', #234, .T. ) ;
#117 = CC_DESIGN_APPROVAL ( #24, ( #162 ) ) ;
#118 = ADVANCED_FACE ( 'NONE', ( #191, #114 ), #55, .T. ) ;
#119 = ORIENTED_EDGE ( 'NONE', *, *, #106, .T. ) ;
#120 = APPROVAL_DATE_TIME ( #66, #21 ) ;
#121 = EDGE_LOOP ( 'NONE', ( #204 ) ) ;
#122 = CALENDAR_DATE ( 2021, 7, 12 ) ;
#123 = CC_DESIGN_PERSON_AND_ORGANIZATION_ASSIGNMENT ( #200, #182, ( #17 ) ) ;
#124 = APPLICATION_PROTOCOL_DEFINITION ( 'international standard', 'config_control_design', 1994, #208 ) ;
#125 = CC_DESIGN_APPROVAL ( #103, ( #157 ) ) ;
#126 = AXIS2_PLACEMENT_3D ( 'NONE', #229, #227, #242 ) ;
#127 = DIRECTION ( 'NONE',  ( 4.275831445896958607E-31, 1.000000000000000000, 1.224646799147353207E-16 ) ) ;
#128 = EDGE_CURVE ( 'NONE', #138, #138, #140, .T. ) ;
#129 = CC_DESIGN_PERSON_AND_ORGANIZATION_ASSIGNMENT ( #218, #44, ( #157 ) ) ;
#130 = FACE_OUTER_BOUND ( 'NONE', #5, .T. ) ;
#131 =( NAMED_UNIT ( * ) SI_UNIT ( $, .STERADIAN. ) SOLID_ANGLE_UNIT ( ) );
#132 = CARTESIAN_POINT ( 'NONE',  ( -5.691948148377360250E-30, 1.996466658227274005E-31, -1.630238742809185226E-15 ) ) ;
#133 = EDGE_CURVE ( 'NONE', #156, #156, #101, .T. ) ;
#134 = DIRECTION ( 'NONE',  ( 4.237045877651918877E-31, 1.000000000000000000, 1.246832498358330099E-16 ) ) ;
#135 = APPLICATION_CONTEXT ( 'configuration controlled 3d designs of mechanical parts and assemblies' ) ;
#136 = DIRECTION ( 'NONE',  ( 4.275831445896958607E-31, 1.000000000000000000, 1.224646799147353207E-16 ) ) ;
#137 = COORDINATED_UNIVERSAL_TIME_OFFSET ( 1, 0, .AHEAD. ) ;
#138 = VERTEX_POINT ( 'NONE', #174 ) ;
#139 = CARTESIAN_POINT ( 'NONE',  ( 0.0000000000000000000, 0.0000000000000000000, 0.0000000000000000000 ) ) ;
#140 = CIRCLE ( 'NONE', #196, 8.000000000000000000 ) ;
#141 = SHAPE_DEFINITION_REPRESENTATION ( #232, #195 ) ;
#142 = PERSON_AND_ORGANIZATION ( #20, #104 ) ;
#143 = CC_DESIGN_PERSON_AND_ORGANIZATION_ASSIGNMENT ( #96, #240, ( #162 ) ) ;
#144 = PERSON_AND_ORGANIZATION_ROLE ( 'creator' ) ;
#145 = AXIS2_PLACEMENT_3D ( 'NONE', #238, #72, #226 ) ;
#146 = COORDINATED_UNIVERSAL_TIME_OFFSET ( 1, 0, .AHEAD. ) ;
#147 = EDGE_LOOP ( 'NONE', ( #84 ) ) ;
#148 = APPROVAL_ROLE ( '' ) ;
#149 = ORIENTED_EDGE ( 'NONE', *, *, #42, .T. ) ;
#150 = FACE_OUTER_BOUND ( 'NONE', #69, .T. ) ;
#151 = DIRECTION ( 'NONE',  ( -3.491481338843133355E-15, 1.224646799147353207E-16, -1.000000000000000000 ) ) ;
#152 = DATE_TIME_ROLE ( 'creation_date' ) ;
#153 = DIRECTION ( 'NONE',  ( 4.275831445896958607E-31, 1.000000000000000000, 1.224646799147353207E-16 ) ) ;
#154 = DIRECTION ( 'NONE',  ( -3.491481338843133355E-15, 1.224646799147353207E-16, -1.000000000000000000 ) ) ;
#155 = DATE_AND_TIME ( #79, #205 ) ;
#156 = VERTEX_POINT ( 'NONE', #158 ) ;
#157 = PRODUCT_DEFINITION_FORMATION_WITH_SPECIFIED_SOURCE ( 'ANY', '', #245, .NOT_KNOWN. ) ;
#158 = CARTESIAN_POINT ( 'NONE',  ( 2.793185071074501951E-15, 8.000000000000000000, 0.7999999999999986011 ) ) ;
#159 = CC_DESIGN_SECURITY_CLASSIFICATION ( #17, ( #157 ) ) ;
#160 = CIRCLE ( 'NONE', #50, 20.00000000000000000 ) ;
#161 = APPROVAL_ROLE ( '' ) ;
#162 = PRODUCT_DEFINITION ( 'UNKNOWN', '', #157, #30 ) ;
#163 = ORIENTED_EDGE ( 'NONE', *, *, #10, .F. ) ;
#164 = ORIENTED_EDGE ( 'NONE', *, *, #188, .F. ) ;
#165 = AXIS2_PLACEMENT_3D ( 'NONE', #139, #38, #35 ) ;
#166 = DIRECTION ( 'NONE',  ( 0.0000000000000000000, 0.0000000000000000000, 1.000000000000000000 ) ) ;
#167 = CARTESIAN_POINT ( 'NONE',  ( 2.793185071074503529E-15, -9.797174393178813824E-17, 0.7999999999999990452 ) ) ;
#168 = PERSON_AND_ORGANIZATION ( #20, #104 ) ;
#169 = CARTESIAN_POINT ( 'NONE',  ( 2.793185071074493274E-15, -9.797174393178778079E-17, 0.7999999999999961586 ) ) ;
#170 = CALENDAR_DATE ( 2021, 7, 12 ) ;
#171 = CARTESIAN_POINT ( 'NONE',  ( 2.688440630909207793E-15, 20.00000000000000000, 0.7699999999999986855 ) ) ;
#172 = CARTESIAN_POINT ( 'NONE',  ( -6.021724209846391220E-31, 2.112136529814582656E-32, -1.724690360751470783E-16 ) ) ;
#173 = APPROVAL_PERSON_ORGANIZATION ( #168, #24, #148 ) ;
#174 = CARTESIAN_POINT ( 'NONE',  ( -2.271282991659793015E-30, 8.000000000000000000, -6.505213034913026604E-16 ) ) ;
#175 = CIRCLE ( 'NONE', #36, 31.50000000000000000 ) ;
#176 = CARTESIAN_POINT ( 'NONE',  ( 2.793185071074501557E-15, 20.00000000000000000, 0.7999999999999986011 ) ) ;
#177 = AXIS2_PLACEMENT_3D ( 'NONE', #9, #71, #127 ) ;
#178 = EDGE_CURVE ( 'NONE', #6, #6, #78, .T. ) ;
#179 = FACE_OUTER_BOUND ( 'NONE', #147, .T. ) ;
#180 = CIRCLE ( 'NONE', #7, 31.50000000000000000 ) ;
#181 = ORIENTED_EDGE ( 'NONE', *, *, #178, .T. ) ;
#182 = PERSON_AND_ORGANIZATION_ROLE ( 'classification_officer' ) ;
#183 = ORIENTED_EDGE ( 'NONE', *, *, #133, .F. ) ;
#184 = VERTEX_POINT ( 'NONE', #51 ) ;
#185 = PLANE ( 'NONE',  #177 ) ;
#186 = FACE_OUTER_BOUND ( 'NONE', #220, .T. ) ;
#187 = UNCERTAINTY_MEASURE_WITH_UNIT (LENGTH_MEASURE( 1.000000000000000082E-05 ), #53, 'distance_accuracy_value', 'NONE');
#188 = EDGE_CURVE ( 'NONE', #184, #184, #180, .T. ) ;
#189 = FACE_BOUND ( 'NONE', #43, .T. ) ;
#190 = AXIS2_PLACEMENT_3D ( 'NONE', #193, #154, #76 ) ;
#191 = FACE_OUTER_BOUND ( 'NONE', #219, .T. ) ;
#192 = MECHANICAL_CONTEXT ( 'NONE', #208, 'mechanical' ) ;
#193 = CARTESIAN_POINT ( 'NONE',  ( 0.0000000000000000000, 0.0000000000000000000, 0.0000000000000000000 ) ) ;
#194 = CARTESIAN_POINT ( 'NONE',  ( 1.047444401653022196E-16, 20.00000000000000000, 0.03000000000000235464 ) ) ;
#195 = ADVANCED_BREP_SHAPE_REPRESENTATION ( '60408', ( #58, #239 ), #56 ) ;
#196 = AXIS2_PLACEMENT_3D ( 'NONE', #132, #230, #153 ) ;
#197 = ADVANCED_FACE ( 'NONE', ( #213, #150 ), #57, .T. ) ;
#198 = APPROVAL_PERSON_ORGANIZATION ( #85, #21, #161 ) ;
#199 = CYLINDRICAL_SURFACE ( 'NONE', #165, 20.00000000000000000 ) ;
#200 = PERSON_AND_ORGANIZATION ( #20, #104 ) ;
#201 = EDGE_LOOP ( 'NONE', ( #183 ) ) ;
#202 = AXIS2_PLACEMENT_3D ( 'NONE', #247, #249, #80 ) ;
#203 = DATE_AND_TIME ( #122, #248 ) ;
#204 = ORIENTED_EDGE ( 'NONE', *, *, #68, .T. ) ;
#205 = LOCAL_TIME ( 10, 46, 36.00000000000000000, #137 ) ;
#206 = AXIS2_PLACEMENT_3D ( 'NONE', #99, #244, #95 ) ;
#207 = DIRECTION ( 'NONE',  ( 4.273157064109179549E-31, 1.000000000000000000, 1.224809641729718290E-16 ) ) ;
#208 = APPLICATION_CONTEXT ( 'configuration controlled 3d designs of mechanical parts and assemblies' ) ;
#209 = CC_DESIGN_PERSON_AND_ORGANIZATION_ASSIGNMENT ( #112, #46, ( #245 ) ) ;
#210 = CARTESIAN_POINT ( 'NONE',  ( 2.793185071074498401E-15, -9.797174393178797801E-17, 0.7999999999999976019 ) ) ;
#211 = DIRECTION ( 'NONE',  ( 4.333342374871280669E-31, 1.000000000000000000, 1.219727444046192488E-16 ) ) ;
#212 = FACE_BOUND ( 'NONE', #4, .T. ) ;
#213 = FACE_OUTER_BOUND ( 'NONE', #65, .T. ) ;
#214 = ADVANCED_FACE ( 'NONE', ( #109, #189 ), #185, .T. ) ;
#215 = CC_DESIGN_DATE_AND_TIME_ASSIGNMENT ( #203, #64, ( #17 ) ) ;
#216 = VERTEX_POINT ( 'NONE', #194 ) ;
#217 = ADVANCED_FACE ( 'NONE', ( #91, #93 ), #26, .F. ) ;
#218 = PERSON_AND_ORGANIZATION ( #20, #104 ) ;
#219 = EDGE_LOOP ( 'NONE', ( #149 ) ) ;
#220 = EDGE_LOOP ( 'NONE', ( #28 ) ) ;
#221 = CONICAL_SURFACE ( 'NONE', #202, 31.50000000000000000, 1.568187637060344475 ) ;
#222 = ORIENTED_EDGE ( 'NONE', *, *, #178, .F. ) ;
#223 = APPROVAL_DATE_TIME ( #31, #24 ) ;
#224 = PLANE ( 'NONE',  #126 ) ;
#225 = CALENDAR_DATE ( 2021, 7, 12 ) ;
#226 = DIRECTION ( 'NONE',  ( 4.273157064109179549E-31, 1.000000000000000000, 1.224809641729718290E-16 ) ) ;
#227 = DIRECTION ( 'NONE',  ( 3.491481338843133355E-15, -1.224646799147353207E-16, 1.000000000000000000 ) ) ;
#228 = PERSON_AND_ORGANIZATION ( #20, #104 ) ;
#229 = CARTESIAN_POINT ( 'NONE',  ( 2.793185071074499190E-15, 8.000000000000000000, 0.7999999999999978240 ) ) ;
#230 = DIRECTION ( 'NONE',  ( -3.491481338843133355E-15, 1.224646799147353207E-16, -1.000000000000000000 ) ) ;
#231 = ADVANCED_FACE ( 'NONE', ( #52, #130 ), #199, .T. ) ;
#232 = PRODUCT_DEFINITION_SHAPE ( 'NONE', 'NONE',  #162 ) ;
#233 = CLOSED_SHELL ( 'NONE', ( #214, #100, #92, #118, #246, #197, #217, #231 ) ) ;
#234 = EDGE_LOOP ( 'NONE', ( #181 ) ) ;
#235 = CALENDAR_DATE ( 2021, 7, 12 ) ;
#236 = LOCAL_TIME ( 10, 46, 36.00000000000000000, #82 ) ;
#237 = DIRECTION ( 'NONE',  ( -3.491481338843133355E-15, 1.224646799147353207E-16, -1.000000000000000000 ) ) ;
#238 = CARTESIAN_POINT ( 'NONE',  ( 1.047444401652936777E-16, -3.673940397442048405E-18, 0.02999999999999990521 ) ) ;
#239 = AXIS2_PLACEMENT_3D ( 'NONE', #243, #166, #90 ) ;
#240 = PERSON_AND_ORGANIZATION_ROLE ( 'creator' ) ;
#241 = DIRECTION ( 'NONE',  ( -3.491481338843133355E-15, 1.224646799147353207E-16, -1.000000000000000000 ) ) ;
#242 = DIRECTION ( 'NONE',  ( -4.275831445896958607E-31, -1.000000000000000000, -1.224646799147353207E-16 ) ) ;
#243 = CARTESIAN_POINT ( 'NONE',  ( 0.0000000000000000000, 0.0000000000000000000, 0.0000000000000000000 ) ) ;
#244 = DIRECTION ( 'NONE',  ( -3.491481338843133355E-15, 1.224646799147353207E-16, -1.000000000000000000 ) ) ;
#245 = PRODUCT ( '60408', '60408', '', ( #192 ) ) ;
#246 = ADVANCED_FACE ( 'NONE', ( #116, #179 ), #221, .F. ) ;
#247 = CARTESIAN_POINT ( 'NONE',  ( 2.793185071074503529E-15, -9.797174393178813824E-17, 0.7999999999999990452 ) ) ;
#248 = LOCAL_TIME ( 10, 46, 36.00000000000000000, #146 ) ;
#249 = DIRECTION ( 'NONE',  ( 3.491481338843133355E-15, -1.224646799147353207E-16, 1.000000000000000000 ) ) ;
ENDSEC;
END-ISO-10303-21;
