ISO-10303-21;
HEADER;
FILE_DESCRIPTION (( 'STEP AP203' ),
    '1' );
FILE_NAME ('60407.step',
    '2021-12-07T09:46:35',
    ( '' ),
    ( '' ),
    'SwSTEP 2.0',
    'SolidWorks 2019',
    '' );
FILE_SCHEMA (( 'CONFIG_CONTROL_DESIGN' ));
ENDSEC;

DATA;
#1 = FACE_OUTER_BOUND ( 'NONE', #115, .T. ) ;
#2 = AXIS2_PLACEMENT_3D ( 'NONE', #186, #135, #117 ) ;
#3 = CARTESIAN_POINT ( 'NONE',  ( 5.404602607112916870E-30, 20.00000000000000000, 1.547939708852540201E-15 ) ) ;
#4 = PLANE ( 'NONE',  #173 ) ;
#5 = CYLINDRICAL_SURFACE ( 'NONE', #139, 20.00000000000000000 ) ;
#6 = CARTESIAN_POINT ( 'NONE',  ( 2.094888803305876463E-15, 8.000000000000000000, 0.5999999999999989786 ) ) ;
#7 = APPROVAL ( #52, 'UNSPECIFIED' ) ;
#8 = COORDINATED_UNIVERSAL_TIME_OFFSET ( 1, 0, .AHEAD. ) ;
#9 = PERSON_AND_ORGANIZATION ( #81, #148 ) ;
#10 = AXIS2_PLACEMENT_3D ( 'NONE', #3, #122, #23 ) ;
#11 = EDGE_CURVE ( 'NONE', #26, #26, #119, .T. ) ;
#12 = LOCAL_TIME ( 10, 46, 35.00000000000000000, #8 ) ;
#13 = EDGE_LOOP ( 'NONE', ( #244 ) ) ;
#14 = ORIENTED_EDGE ( 'NONE', *, *, #11, .F. ) ;
#15 = UNCERTAINTY_MEASURE_WITH_UNIT (LENGTH_MEASURE( 1.000000000000000082E-05 ), #24, 'distance_accuracy_value', 'NONE');
#16 = ADVANCED_FACE ( 'NONE', ( #207, #205 ), #36, .T. ) ;
#17 = CARTESIAN_POINT ( 'NONE',  ( 2.094888803305872913E-15, -7.347880794884094345E-17, 0.5999999999999979794 ) ) ;
#18 = ORIENTED_EDGE ( 'NONE', *, *, #94, .F. ) ;
#19 = DIRECTION ( 'NONE',  ( 4.275831445896958607E-31, 1.000000000000000000, 1.224646799147353207E-16 ) ) ;
#20 = EDGE_CURVE ( 'NONE', #107, #107, #103, .T. ) ;
#21 = DIRECTION ( 'NONE',  ( -3.491481338843133355E-15, 1.224646799147353207E-16, -1.000000000000000000 ) ) ;
#22 = PRODUCT_DEFINITION_FORMATION_WITH_SPECIFIED_SOURCE ( 'ANY', '', #220, .NOT_KNOWN. ) ;
#23 = DIRECTION ( 'NONE',  ( 4.275831445896958607E-31, 1.000000000000000000, 1.224646799147353207E-16 ) ) ;
#24 =( LENGTH_UNIT ( ) NAMED_UNIT ( * ) SI_UNIT ( .MILLI., .METRE. ) );
#25 = FACE_OUTER_BOUND ( 'NONE', #35, .T. ) ;
#26 = VERTEX_POINT ( 'NONE', #40 ) ;
#27 = CONICAL_SURFACE ( 'NONE', #219, 20.00000000000000000, 1.568187637060344253 ) ;
#28 = PERSON_AND_ORGANIZATION ( #81, #148 ) ;
#29 = ADVANCED_FACE ( 'NONE', ( #101, #73 ), #153, .F. ) ;
#30 = CALENDAR_DATE ( 2021, 7, 12 ) ;
#31 = PRODUCT_DEFINITION_SHAPE ( 'NONE', 'NONE',  #152 ) ;
#32 = PERSON_AND_ORGANIZATION ( #81, #148 ) ;
#33 = CC_DESIGN_PERSON_AND_ORGANIZATION_ASSIGNMENT ( #149, #201, ( #22 ) ) ;
#34 = DIRECTION ( 'NONE',  ( -3.491481338843133355E-15, 1.224646799147353207E-16, -1.000000000000000000 ) ) ;
#35 = EDGE_LOOP ( 'NONE', ( #39 ) ) ;
#36 = CYLINDRICAL_SURFACE ( 'NONE', #114, 31.50000000000000000 ) ;
#37 = ORIENTED_EDGE ( 'NONE', *, *, #53, .T. ) ;
#38 = AXIS2_PLACEMENT_3D ( 'NONE', #181, #21, #180 ) ;
#39 = ORIENTED_EDGE ( 'NONE', *, *, #145, .T. ) ;
#40 = CARTESIAN_POINT ( 'NONE',  ( 2.094888803305893818E-15, 31.50000000000000000, 0.6000000000000039746 ) ) ;
#41 = DIRECTION ( 'NONE',  ( 4.273157064109179549E-31, 1.000000000000000000, 1.224809641729718290E-16 ) ) ;
#42 = CARTESIAN_POINT ( 'NONE',  ( 2.094888803305880013E-15, -7.347880794884118997E-17, 0.6000000000000000888 ) ) ;
#43 = CC_DESIGN_PERSON_AND_ORGANIZATION_ASSIGNMENT ( #133, #54, ( #220 ) ) ;
#44 = FACE_BOUND ( 'NONE', #13, .T. ) ;
#45 = VERTEX_POINT ( 'NONE', #142 ) ;
#46 = APPROVAL_ROLE ( '' ) ;
#47 =( GEOMETRIC_REPRESENTATION_CONTEXT ( 3 ) GLOBAL_UNCERTAINTY_ASSIGNED_CONTEXT ( ( #15 ) ) GLOBAL_UNIT_ASSIGNED_CONTEXT ( ( #24, #108, #198 ) ) REPRESENTATION_CONTEXT ( 'NONE', 'WORKASPACE' ) );
#48 = APPROVAL_PERSON_ORGANIZATION ( #68, #242, #183 ) ;
#49 = APPROVAL_ROLE ( '' ) ;
#50 = MANIFOLD_SOLID_BREP ( 'Corps-Déplacer/Copier1', #87 ) ;
#51 = APPROVAL_DATE_TIME ( #239, #242 ) ;
#52 = APPROVAL_STATUS ( 'not_yet_approved' ) ;
#53 = EDGE_CURVE ( 'NONE', #85, #85, #127, .T. ) ;
#54 = PERSON_AND_ORGANIZATION_ROLE ( 'design_owner' ) ;
#55 = EDGE_LOOP ( 'NONE', ( #175 ) ) ;
#56 = CC_DESIGN_PERSON_AND_ORGANIZATION_ASSIGNMENT ( #32, #95, ( #197 ) ) ;
#57 = LOCAL_TIME ( 10, 46, 35.00000000000000000, #93 ) ;
#58 = EDGE_LOOP ( 'NONE', ( #187 ) ) ;
#59 = ORIENTED_EDGE ( 'NONE', *, *, #194, .T. ) ;
#60 = CARTESIAN_POINT ( 'NONE',  ( -1.309032188929878747E-29, 4.591466843368553588E-31, -3.749217200065612245E-15 ) ) ;
#61 = VERTEX_POINT ( 'NONE', #160 ) ;
#62 = DIRECTION ( 'NONE',  ( -3.491481338843133355E-15, 1.224646799147353207E-16, -1.000000000000000000 ) ) ;
#63 = EDGE_CURVE ( 'NONE', #231, #231, #238, .T. ) ;
#64 = DIRECTION ( 'NONE',  ( 4.275831445896958607E-31, 1.000000000000000000, 1.224646799147353207E-16 ) ) ;
#65 = DIRECTION ( 'NONE',  ( -3.491481338843133355E-15, 1.224646799147353207E-16, -1.000000000000000000 ) ) ;
#66 = ADVANCED_FACE ( 'NONE', ( #78, #86 ), #189, .F. ) ;
#67 = APPROVAL_DATE_TIME ( #236, #162 ) ;
#68 = PERSON_AND_ORGANIZATION ( #81, #148 ) ;
#69 = CARTESIAN_POINT ( 'NONE',  ( 0.0000000000000000000, 0.0000000000000000000, 0.0000000000000000000 ) ) ;
#70 = CALENDAR_DATE ( 2021, 7, 12 ) ;
#71 = ADVANCED_FACE ( 'NONE', ( #88, #164 ), #4, .T. ) ;
#72 = DATE_AND_TIME ( #166, #229 ) ;
#73 = FACE_OUTER_BOUND ( 'NONE', #154, .T. ) ;
#74 = ORIENTED_EDGE ( 'NONE', *, *, #63, .F. ) ;
#75 = DIRECTION ( 'NONE',  ( -3.491481338843133355E-15, 1.224646799147353207E-16, -1.000000000000000000 ) ) ;
#76 = APPLICATION_CONTEXT ( 'configuration controlled 3d designs of mechanical parts and assemblies' ) ;
#77 = AXIS2_PLACEMENT_3D ( 'NONE', #42, #212, #106 ) ;
#78 = FACE_BOUND ( 'NONE', #190, .T. ) ;
#79 = EDGE_LOOP ( 'NONE', ( #96 ) ) ;
#80 = CC_DESIGN_DATE_AND_TIME_ASSIGNMENT ( #151, #90, ( #152 ) ) ;
#81 = PERSON ( 'UNSPECIFIED', 'UNSPECIFIED', 'UNSPECIFIED', ('UNSPECIFIED'), ('UNSPECIFIED'), ('UNSPECIFIED') ) ;
#82 = FACE_OUTER_BOUND ( 'NONE', #79, .T. ) ;
#83 = CC_DESIGN_APPROVAL ( #162, ( #152 ) ) ;
#84 = CARTESIAN_POINT ( 'NONE',  ( 1.990144363140581910E-15, 20.00000000000000000, 0.5699999999999988409 ) ) ;
#85 = VERTEX_POINT ( 'NONE', #84 ) ;
#86 = FACE_OUTER_BOUND ( 'NONE', #228, .T. ) ;
#87 = CLOSED_SHELL ( 'NONE', ( #248, #29, #71, #215, #66, #16, #227, #177 ) ) ;
#88 = FACE_BOUND ( 'NONE', #136, .T. ) ;
#89 = APPROVAL_STATUS ( 'not_yet_approved' ) ;
#90 = DATE_TIME_ROLE ( 'creation_date' ) ;
#91 = CALENDAR_DATE ( 2021, 7, 12 ) ;
#92 = APPROVAL_PERSON_ORGANIZATION ( #147, #7, #46 ) ;
#93 = COORDINATED_UNIVERSAL_TIME_OFFSET ( 1, 0, .AHEAD. ) ;
#94 = EDGE_CURVE ( 'NONE', #61, #61, #184, .T. ) ;
#95 = PERSON_AND_ORGANIZATION_ROLE ( 'classification_officer' ) ;
#96 = ORIENTED_EDGE ( 'NONE', *, *, #53, .F. ) ;
#97 = DIRECTION ( 'NONE',  ( -3.491481338843133355E-15, 1.224646799147353207E-16, -1.000000000000000000 ) ) ;
#98 = DIRECTION ( 'NONE',  ( -3.491481338843133355E-15, 1.224646799147353207E-16, -1.000000000000000000 ) ) ;
#99 = CIRCLE ( 'NONE', #132, 8.000000000000000000 ) ;
#100 = ORIENTED_EDGE ( 'NONE', *, *, #11, .T. ) ;
#101 = FACE_OUTER_BOUND ( 'NONE', #120, .T. ) ;
#102 = CARTESIAN_POINT ( 'NONE',  ( -5.691948148377360250E-30, 1.996466658227274005E-31, -1.630238742809185226E-15 ) ) ;
#103 = CIRCLE ( 'NONE', #2, 20.00000000000000000 ) ;
#104 = PRODUCT_RELATED_PRODUCT_CATEGORY ( 'detail', '', ( #220 ) ) ;
#105 = FACE_OUTER_BOUND ( 'NONE', #58, .T. ) ;
#106 = DIRECTION ( 'NONE',  ( -4.279844320860524021E-31, -1.000000000000000000, -1.239088197126290817E-16 ) ) ;
#107 = VERTEX_POINT ( 'NONE', #182 ) ;
#108 =( NAMED_UNIT ( * ) PLANE_ANGLE_UNIT ( ) SI_UNIT ( $, .RADIAN. ) );
#109 = CC_DESIGN_DATE_AND_TIME_ASSIGNMENT ( #72, #237, ( #197 ) ) ;
#110 = SECURITY_CLASSIFICATION_LEVEL ( 'unclassified' ) ;
#111 = APPLICATION_PROTOCOL_DEFINITION ( 'international standard', 'config_control_design', 1994, #76 ) ;
#112 = MECHANICAL_CONTEXT ( 'NONE', #76, 'mechanical' ) ;
#113 = AXIS2_PLACEMENT_3D ( 'NONE', #225, #170, #138 ) ;
#114 = AXIS2_PLACEMENT_3D ( 'NONE', #202, #34, #19 ) ;
#115 = EDGE_LOOP ( 'NONE', ( #223 ) ) ;
#116 = DIRECTION ( 'NONE',  ( 4.275831445896958607E-31, 1.000000000000000000, 1.224646799147353207E-16 ) ) ;
#117 = DIRECTION ( 'NONE',  ( 4.273157064109179549E-31, 1.000000000000000000, 1.224809641729718290E-16 ) ) ;
#118 = EDGE_LOOP ( 'NONE', ( #100 ) ) ;
#119 = CIRCLE ( 'NONE', #113, 31.50000000000000000 ) ;
#120 = EDGE_LOOP ( 'NONE', ( #59 ) ) ;
#121 = DIRECTION ( 'NONE',  ( 4.275831445896958607E-31, 1.000000000000000000, 1.224646799147353207E-16 ) ) ;
#122 = DIRECTION ( 'NONE',  ( -3.491481338843133355E-15, 1.224646799147353207E-16, -1.000000000000000000 ) ) ;
#123 = LOCAL_TIME ( 10, 46, 35.00000000000000000, #217 ) ;
#124 = DIRECTION ( 'NONE',  ( 4.237045877651918877E-31, 1.000000000000000000, 1.246832498358330099E-16 ) ) ;
#125 = PLANE ( 'NONE',  #10 ) ;
#126 = CARTESIAN_POINT ( 'NONE',  ( -6.021724209846391220E-31, 2.112136529814582656E-32, -1.724690360751470783E-16 ) ) ;
#127 = CIRCLE ( 'NONE', #224, 20.00000000000000000 ) ;
#128 = CC_DESIGN_APPROVAL ( #242, ( #197 ) ) ;
#129 = APPROVAL_DATE_TIME ( #131, #7 ) ;
#130 = APPROVAL_STATUS ( 'not_yet_approved' ) ;
#131 = DATE_AND_TIME ( #70, #123 ) ;
#132 = AXIS2_PLACEMENT_3D ( 'NONE', #102, #176, #64 ) ;
#133 = PERSON_AND_ORGANIZATION ( #81, #148 ) ;
#134 = APPROVAL_PERSON_ORGANIZATION ( #240, #162, #49 ) ;
#135 = DIRECTION ( 'NONE',  ( -3.491481338843133355E-15, 1.224646799147353207E-16, -1.000000000000000000 ) ) ;
#136 = EDGE_LOOP ( 'NONE', ( #243 ) ) ;
#137 = EDGE_LOOP ( 'NONE', ( #245 ) ) ;
#138 = DIRECTION ( 'NONE',  ( 4.279844320860524021E-31, 1.000000000000000000, 1.239088197126290817E-16 ) ) ;
#139 = AXIS2_PLACEMENT_3D ( 'NONE', #159, #146, #192 ) ;
#140 = AXIS2_PLACEMENT_3D ( 'NONE', #126, #65, #121 ) ;
#141 = CARTESIAN_POINT ( 'NONE',  ( 3.785471652766336288E-31, 31.50000000000000000, 1.084202172485504434E-16 ) ) ;
#142 = CARTESIAN_POINT ( 'NONE',  ( 7.949490470809277478E-30, 20.00000000000000000, 2.276824562219559311E-15 ) ) ;
#143 = CIRCLE ( 'NONE', #140, 20.00000000000000000 ) ;
#144 = FACE_OUTER_BOUND ( 'NONE', #55, .T. ) ;
#145 = EDGE_CURVE ( 'NONE', #233, #233, #163, .T. ) ;
#146 = DIRECTION ( 'NONE',  ( -3.491481338843133355E-15, 1.224646799147353207E-16, -1.000000000000000000 ) ) ;
#147 = PERSON_AND_ORGANIZATION ( #81, #148 ) ;
#148 = ORGANIZATION ( 'UNSPECIFIED', 'UNSPECIFIED', '' ) ;
#149 = PERSON_AND_ORGANIZATION ( #81, #148 ) ;
#150 = APPLICATION_PROTOCOL_DEFINITION ( 'international standard', 'config_control_design', 1994, #199 ) ;
#151 = DATE_AND_TIME ( #214, #57 ) ;
#152 = PRODUCT_DEFINITION ( 'UNKNOWN', '', #22, #172 ) ;
#153 = CYLINDRICAL_SURFACE ( 'NONE', #168, 8.000000000000000000 ) ;
#154 = EDGE_LOOP ( 'NONE', ( #74 ) ) ;
#155 = VERTEX_POINT ( 'NONE', #210 ) ;
#156 = AXIS2_PLACEMENT_3D ( 'NONE', #69, #167, #221 ) ;
#157 = CC_DESIGN_SECURITY_CLASSIFICATION ( #197, ( #22 ) ) ;
#158 = ADVANCED_BREP_SHAPE_REPRESENTATION ( '60407', ( #50, #156 ), #47 ) ;
#159 = CARTESIAN_POINT ( 'NONE',  ( 0.0000000000000000000, 0.0000000000000000000, 0.0000000000000000000 ) ) ;
#160 = CARTESIAN_POINT ( 'NONE',  ( 2.094888803305876463E-15, 20.00000000000000000, 0.5999999999999989786 ) ) ;
#161 = DIRECTION ( 'NONE',  ( -3.491481338843133355E-15, 1.224646799147353207E-16, -1.000000000000000000 ) ) ;
#162 = APPROVAL ( #89, 'UNSPECIFIED' ) ;
#163 = CIRCLE ( 'NONE', #246, 31.50000000000000000 ) ;
#164 = FACE_OUTER_BOUND ( 'NONE', #226, .T. ) ;
#165 = COORDINATED_UNIVERSAL_TIME_OFFSET ( 1, 0, .AHEAD. ) ;
#166 = CALENDAR_DATE ( 2021, 7, 12 ) ;
#167 = DIRECTION ( 'NONE',  ( 0.0000000000000000000, 0.0000000000000000000, 1.000000000000000000 ) ) ;
#168 = AXIS2_PLACEMENT_3D ( 'NONE', #204, #97, #116 ) ;
#169 = CC_DESIGN_APPROVAL ( #7, ( #22 ) ) ;
#170 = DIRECTION ( 'NONE',  ( -3.491481338843133355E-15, 1.224646799147353207E-16, -1.000000000000000000 ) ) ;
#171 = CARTESIAN_POINT ( 'NONE',  ( 1.990144363140573233E-15, -6.980486755139868242E-17, 0.5699999999999963984 ) ) ;
#172 = DESIGN_CONTEXT ( 'detailed design', #199, 'design' ) ;
#173 = AXIS2_PLACEMENT_3D ( 'NONE', #235, #230, #196 ) ;
#174 = EDGE_LOOP ( 'NONE', ( #222 ) ) ;
#175 = ORIENTED_EDGE ( 'NONE', *, *, #191, .F. ) ;
#176 = DIRECTION ( 'NONE',  ( -3.491481338843133355E-15, 1.224646799147353207E-16, -1.000000000000000000 ) ) ;
#177 = ADVANCED_FACE ( 'NONE', ( #209, #144 ), #234, .T. ) ;
#178 = CARTESIAN_POINT ( 'NONE',  ( 1.047444401652936777E-16, -3.673940397442048405E-18, 0.02999999999999990521 ) ) ;
#179 = AXIS2_PLACEMENT_3D ( 'NONE', #17, #98, #247 ) ;
#180 = DIRECTION ( 'NONE',  ( 4.275831445896958607E-31, 1.000000000000000000, 1.224646799147353207E-16 ) ) ;
#181 = CARTESIAN_POINT ( 'NONE',  ( 0.0000000000000000000, 0.0000000000000000000, 0.0000000000000000000 ) ) ;
#182 = CARTESIAN_POINT ( 'NONE',  ( 1.047444401653022196E-16, 20.00000000000000000, 0.03000000000000235464 ) ) ;
#183 = APPROVAL_ROLE ( '' ) ;
#184 = CIRCLE ( 'NONE', #211, 20.00000000000000000 ) ;
#185 = LOCAL_TIME ( 10, 46, 35.00000000000000000, #165 ) ;
#186 = CARTESIAN_POINT ( 'NONE',  ( 1.047444401652936777E-16, -3.673940397442048405E-18, 0.02999999999999990521 ) ) ;
#187 = ORIENTED_EDGE ( 'NONE', *, *, #191, .T. ) ;
#188 = DIRECTION ( 'NONE',  ( 4.237045877651918877E-31, 1.000000000000000000, 1.246832498358330099E-16 ) ) ;
#189 = CONICAL_SURFACE ( 'NONE', #77, 31.50000000000000000, 1.568187637060344253 ) ;
#190 = EDGE_LOOP ( 'NONE', ( #37 ) ) ;
#191 = EDGE_CURVE ( 'NONE', #45, #45, #143, .T. ) ;
#192 = DIRECTION ( 'NONE',  ( 4.275831445896958607E-31, 1.000000000000000000, 1.224646799147353207E-16 ) ) ;
#193 = CARTESIAN_POINT ( 'NONE',  ( 2.094888803305867786E-15, -7.347880794884075856E-17, 0.5999999999999964251 ) ) ;
#194 = EDGE_CURVE ( 'NONE', #155, #155, #99, .T. ) ;
#195 = DIRECTION ( 'NONE',  ( 4.275831445896958607E-31, 1.000000000000000000, 1.224646799147353207E-16 ) ) ;
#196 = DIRECTION ( 'NONE',  ( -4.275831445896958607E-31, -1.000000000000000000, -1.224646799147353207E-16 ) ) ;
#197 = SECURITY_CLASSIFICATION ( '', '', #110 ) ;
#198 =( NAMED_UNIT ( * ) SI_UNIT ( $, .STERADIAN. ) SOLID_ANGLE_UNIT ( ) );
#199 = APPLICATION_CONTEXT ( 'configuration controlled 3d designs of mechanical parts and assemblies' ) ;
#200 = SHAPE_DEFINITION_REPRESENTATION ( #31, #158 ) ;
#201 = PERSON_AND_ORGANIZATION_ROLE ( 'creator' ) ;
#202 = CARTESIAN_POINT ( 'NONE',  ( 0.0000000000000000000, 0.0000000000000000000, 0.0000000000000000000 ) ) ;
#203 = CC_DESIGN_PERSON_AND_ORGANIZATION_ASSIGNMENT ( #9, #218, ( #152 ) ) ;
#204 = CARTESIAN_POINT ( 'NONE',  ( 0.0000000000000000000, 0.0000000000000000000, 0.0000000000000000000 ) ) ;
#205 = FACE_OUTER_BOUND ( 'NONE', #137, .T. ) ;
#206 = ORIENTED_EDGE ( 'NONE', *, *, #20, .T. ) ;
#207 = FACE_OUTER_BOUND ( 'NONE', #118, .T. ) ;
#208 = DIRECTION ( 'NONE',  ( -3.491481338843133355E-15, 1.224646799147353207E-16, -1.000000000000000000 ) ) ;
#209 = FACE_OUTER_BOUND ( 'NONE', #249, .T. ) ;
#210 = CARTESIAN_POINT ( 'NONE',  ( -2.271282991659793015E-30, 8.000000000000000000, -6.505213034913026604E-16 ) ) ;
#211 = AXIS2_PLACEMENT_3D ( 'NONE', #193, #208, #124 ) ;
#212 = DIRECTION ( 'NONE',  ( 3.491481338843133355E-15, -1.224646799147353207E-16, 1.000000000000000000 ) ) ;
#213 = FACE_BOUND ( 'NONE', #174, .T. ) ;
#214 = CALENDAR_DATE ( 2021, 7, 12 ) ;
#215 = ADVANCED_FACE ( 'NONE', ( #1, #82 ), #5, .T. ) ;
#216 = PERSON_AND_ORGANIZATION_ROLE ( 'design_supplier' ) ;
#217 = COORDINATED_UNIVERSAL_TIME_OFFSET ( 1, 0, .AHEAD. ) ;
#218 = PERSON_AND_ORGANIZATION_ROLE ( 'creator' ) ;
#219 = AXIS2_PLACEMENT_3D ( 'NONE', #178, #62, #41 ) ;
#220 = PRODUCT ( '60407', '60407', '', ( #112 ) ) ;
#221 = DIRECTION ( 'NONE',  ( 1.000000000000000000, 0.0000000000000000000, 0.0000000000000000000 ) ) ;
#222 = ORIENTED_EDGE ( 'NONE', *, *, #20, .F. ) ;
#223 = ORIENTED_EDGE ( 'NONE', *, *, #94, .T. ) ;
#224 = AXIS2_PLACEMENT_3D ( 'NONE', #171, #75, #188 ) ;
#225 = CARTESIAN_POINT ( 'NONE',  ( 2.094888803305880013E-15, -7.347880794884118997E-17, 0.6000000000000000888 ) ) ;
#226 = EDGE_LOOP ( 'NONE', ( #18 ) ) ;
#227 = ADVANCED_FACE ( 'NONE', ( #25, #213 ), #27, .F. ) ;
#228 = EDGE_LOOP ( 'NONE', ( #14 ) ) ;
#229 = LOCAL_TIME ( 10, 46, 35.00000000000000000, #241 ) ;
#230 = DIRECTION ( 'NONE',  ( 3.491481338843133355E-15, -1.224646799147353207E-16, 1.000000000000000000 ) ) ;
#231 = VERTEX_POINT ( 'NONE', #6 ) ;
#232 = CC_DESIGN_PERSON_AND_ORGANIZATION_ASSIGNMENT ( #28, #216, ( #22 ) ) ;
#233 = VERTEX_POINT ( 'NONE', #141 ) ;
#234 = CYLINDRICAL_SURFACE ( 'NONE', #38, 20.00000000000000000 ) ;
#235 = CARTESIAN_POINT ( 'NONE',  ( 2.094888803305873702E-15, 8.000000000000000000, 0.5999999999999982014 ) ) ;
#236 = DATE_AND_TIME ( #30, #185 ) ;
#237 = DATE_TIME_ROLE ( 'classification_date' ) ;
#238 = CIRCLE ( 'NONE', #179, 8.000000000000000000 ) ;
#239 = DATE_AND_TIME ( #91, #12 ) ;
#240 = PERSON_AND_ORGANIZATION ( #81, #148 ) ;
#241 = COORDINATED_UNIVERSAL_TIME_OFFSET ( 1, 0, .AHEAD. ) ;
#242 = APPROVAL ( #130, 'UNSPECIFIED' ) ;
#243 = ORIENTED_EDGE ( 'NONE', *, *, #63, .T. ) ;
#244 = ORIENTED_EDGE ( 'NONE', *, *, #194, .F. ) ;
#245 = ORIENTED_EDGE ( 'NONE', *, *, #145, .F. ) ;
#246 = AXIS2_PLACEMENT_3D ( 'NONE', #60, #161, #195 ) ;
#247 = DIRECTION ( 'NONE',  ( 4.333342374871280669E-31, 1.000000000000000000, 1.219727444046192488E-16 ) ) ;
#248 = ADVANCED_FACE ( 'NONE', ( #105, #44 ), #125, .T. ) ;
#249 = EDGE_LOOP ( 'NONE', ( #206 ) ) ;
ENDSEC;
END-ISO-10303-21;
