ISO-10303-21;
HEADER;
FILE_DESCRIPTION (( 'STEP AP203' ),
    '1' );
FILE_NAME ('60383.step',
    '2021-11-01T10:35:28',
    ( '' ),
    ( '' ),
    'SwSTEP 2.0',
    'SolidWorks 2019',
    '' );
FILE_SCHEMA (( 'CONFIG_CONTROL_DESIGN' ));
ENDSEC;

DATA;
#1 = DIRECTION ( 'NONE',  ( 0.0000000000000000000, 1.000000000000000000, 0.0000000000000000000 ) ) ;
#2 = PRODUCT_DEFINITION_FORMATION_WITH_SPECIFIED_SOURCE ( 'ANY', '', #51, .NOT_KNOWN. ) ;
#3 = DIRECTION ( 'NONE',  ( 3.491481338843133355E-15, -1.219242935835426903E-16, 1.000000000000000000 ) ) ;
#4 = DIRECTION ( 'NONE',  ( -3.491481338843133355E-15, 1.224646799147353207E-16, -1.000000000000000000 ) ) ;
#5 = FACE_OUTER_BOUND ( 'NONE', #143, .T. ) ;
#6 = CALENDAR_DATE ( 2021, 1, 11 ) ;
#7 = PRODUCT_RELATED_PRODUCT_CATEGORY ( 'detail', '', ( #51 ) ) ;
#8 = CARTESIAN_POINT ( 'NONE',  ( 1.326762908760390423E-13, -4.653657836759941941E-15, 38.00000000000000000 ) ) ;
#9 = CIRCLE ( 'NONE', #14, 0.4499999999999997891 ) ;
#10 = CARTESIAN_POINT ( 'NONE',  ( 1.123432334710171644E-14, -0.5181483474218607777, 3.217638090205028778 ) ) ;
#11 = EDGE_CURVE ( 'NONE', #27, #27, #9, .T. ) ;
#12 = APPROVAL_ROLE ( '' ) ;
#13 = CALENDAR_DATE ( 2021, 1, 11 ) ;
#14 = AXIS2_PLACEMENT_3D ( 'NONE', #99, #3, #183 ) ;
#15 = ORIENTED_EDGE ( 'NONE', *, *, #220, .F. ) ;
#16 = EDGE_LOOP ( 'NONE', ( #122 ) ) ;
#17 = CALENDAR_DATE ( 2021, 1, 11 ) ;
#18 = EDGE_LOOP ( 'NONE', ( #53 ) ) ;
#19 = FACE_OUTER_BOUND ( 'NONE', #241, .T. ) ;
#20 = PLANE ( 'NONE',  #213 ) ;
#21 = CARTESIAN_POINT ( 'NONE',  ( 0.0000000000000000000, 0.0000000000000000000, 0.0000000000000000000 ) ) ;
#22 = DIRECTION ( 'NONE',  ( 3.491481338843133355E-15, -1.219242935835426903E-16, 1.000000000000000000 ) ) ;
#23 = CARTESIAN_POINT ( 'NONE',  ( 1.326762908760390423E-13, 8.998558695971047118E-33, 38.00000000000000000 ) ) ;
#24 = VERTEX_POINT ( 'NONE', #191 ) ;
#25 = APPROVAL_PERSON_ORGANIZATION ( #193, #206, #12 ) ;
#26 = VERTEX_POINT ( 'NONE', #45 ) ;
#27 = VERTEX_POINT ( 'NONE', #212 ) ;
#28 = AXIS2_PLACEMENT_3D ( 'NONE', #95, #187, #185 ) ;
#29 = VERTEX_POINT ( 'NONE', #10 ) ;
#30 = APPROVAL_STATUS ( 'not_yet_approved' ) ;
#31 = COORDINATED_UNIVERSAL_TIME_OFFSET ( 1, 0, .AHEAD. ) ;
#32 = AXIS2_PLACEMENT_3D ( 'NONE', #56, #231, #112 ) ;
#33 = ORIENTED_EDGE ( 'NONE', *, *, #220, .T. ) ;
#34 = EDGE_LOOP ( 'NONE', ( #223 ) ) ;
#35 = EDGE_LOOP ( 'NONE', ( #33 ) ) ;
#36 = ADVANCED_FACE ( 'NONE', ( #19 ), #77, .T. ) ;
#37 = AXIS2_PLACEMENT_3D ( 'NONE', #229, #58, #134 ) ;
#38 = ADVANCED_BREP_SHAPE_REPRESENTATION ( '60383', ( #103, #189, #171 ), #218 ) ;
#39 = DIRECTION ( 'NONE',  ( 0.0000000000000000000, -1.000000000000000000, 0.0000000000000000000 ) ) ;
#40 = CARTESIAN_POINT ( 'NONE',  ( 2.402822912970692054E-14, -8.390779094565404110E-16, 6.881958343122185795 ) ) ;
#41 = CARTESIAN_POINT ( 'NONE',  ( -8.551680453529350800E-31, 2.999525725151307090E-32, -2.449298628175645296E-16 ) ) ;
#42 = EDGE_CURVE ( 'NONE', #29, #29, #75, .T. ) ;
#43 = DIRECTION ( 'NONE',  ( -4.256963957985708889E-31, -1.000000000000000000, -1.219242935835426903E-16 ) ) ;
#44 =( LENGTH_UNIT ( ) NAMED_UNIT ( * ) SI_UNIT ( .MILLI., .METRE. ) );
#45 = CARTESIAN_POINT ( 'NONE',  ( 9.426999614876460059E-15, -0.4500000000000001221, 2.699999999999999734 ) ) ;
#46 = PERSON_AND_ORGANIZATION ( #126, #66 ) ;
#47 = CC_DESIGN_PERSON_AND_ORGANIZATION_ASSIGNMENT ( #217, #192, ( #51 ) ) ;
#48 = APPROVAL_ROLE ( '' ) ;
#49 = CLOSED_SHELL ( 'NONE', ( #238, #243, #196, #190, #172, #216 ) ) ;
#50 = DATE_AND_TIME ( #222, #149 ) ;
#51 = PRODUCT ( '60383', '60383', '', ( #84 ) ) ;
#52 = APPROVAL_DATE_TIME ( #50, #206 ) ;
#53 = ORIENTED_EDGE ( 'NONE', *, *, #118, .T. ) ;
#54 = ORIENTED_EDGE ( 'NONE', *, *, #146, .T. ) ;
#55 = CARTESIAN_POINT ( 'NONE',  ( 9.426999614876460059E-15, -3.291955926755652440E-16, 2.699999999999999734 ) ) ;
#56 = CARTESIAN_POINT ( 'NONE',  ( 9.426999614876460059E-15, -4.336808689942017736E-16, 2.699999999999999734 ) ) ;
#57 = APPROVAL ( #155, 'UNSPECIFIED' ) ;
#58 = DIRECTION ( 'NONE',  ( 3.491481338843133355E-15, -1.224646799147353207E-16, 1.000000000000000000 ) ) ;
#59 = DIRECTION ( 'NONE',  ( -3.491481338843133355E-15, 1.219242935835426903E-16, -1.000000000000000000 ) ) ;
#60 = FACE_OUTER_BOUND ( 'NONE', #68, .T. ) ;
#61 = DATE_AND_TIME ( #176, #141 ) ;
#62 = AXIS2_PLACEMENT_3D ( 'NONE', #208, #109, #205 ) ;
#63 = APPLICATION_PROTOCOL_DEFINITION ( 'international standard', 'config_control_design', 1994, #164 ) ;
#64 = DIRECTION ( 'NONE',  ( 0.0000000000000000000, 0.0000000000000000000, 1.000000000000000000 ) ) ;
#65 = VERTEX_POINT ( 'NONE', #136 ) ;
#66 = ORGANIZATION ( 'UNSPECIFIED', 'UNSPECIFIED', '' ) ;
#67 = CC_DESIGN_PERSON_AND_ORGANIZATION_ASSIGNMENT ( #179, #145, ( #219 ) ) ;
#68 = EDGE_LOOP ( 'NONE', ( #181 ) ) ;
#69 = CONICAL_SURFACE ( 'NONE', #167, 2.499999999999995559, 0.2617993877991430796 ) ;
#70 = EDGE_LOOP ( 'NONE', ( #159 ) ) ;
#71 = DATE_AND_TIME ( #17, #82 ) ;
#72 = ORIENTED_EDGE ( 'NONE', *, *, #226, .F. ) ;
#73 = DIRECTION ( 'NONE',  ( 3.491481338843133355E-15, -1.219242935835426903E-16, 1.000000000000000000 ) ) ;
#74 = FACE_OUTER_BOUND ( 'NONE', #18, .T. ) ;
#75 = CIRCLE ( 'NONE', #209, 0.5181483474218603336 ) ;
#76 = CC_DESIGN_PERSON_AND_ORGANIZATION_ASSIGNMENT ( #46, #117, ( #101 ) ) ;
#77 = PLANE ( 'NONE',  #37 ) ;
#78 = CARTESIAN_POINT ( 'NONE',  ( 1.123432334710171644E-14, -3.923082511557475677E-16, 3.217638090205028778 ) ) ;
#79 = CARTESIAN_POINT ( 'NONE',  ( 0.0000000000000000000, 0.0000000000000000000, 0.0000000000000000000 ) ) ;
#80 = ADVANCED_FACE ( 'NONE', ( #130 ), #20, .F. ) ;
#81 = AXIS2_PLACEMENT_3D ( 'NONE', #166, #4, #1 ) ;
#82 = LOCAL_TIME ( 11, 35, 28.00000000000000000, #31 ) ;
#83 = DATE_AND_TIME ( #6, #127 ) ;
#84 = MECHANICAL_CONTEXT ( 'NONE', #125, 'mechanical' ) ;
#85 = VERTEX_POINT ( 'NONE', #115 ) ;
#86 = COORDINATED_UNIVERSAL_TIME_OFFSET ( 1, 0, .AHEAD. ) ;
#87 = PERSON_AND_ORGANIZATION_ROLE ( 'design_supplier' ) ;
#88 = CC_DESIGN_APPROVAL ( #206, ( #2 ) ) ;
#89 = DATE_TIME_ROLE ( 'classification_date' ) ;
#90 = DATE_AND_TIME ( #13, #108 ) ;
#91 = CLOSED_SHELL ( 'NONE', ( #36, #131, #80 ) ) ;
#92 = APPROVAL_PERSON_ORGANIZATION ( #142, #96, #197 ) ;
#93 = EDGE_LOOP ( 'NONE', ( #121 ) ) ;
#94 = FACE_OUTER_BOUND ( 'NONE', #202, .T. ) ;
#95 = CARTESIAN_POINT ( 'NONE',  ( -2.543274185699767422E-30, 8.881242039902983900E-32, -7.284226776198252328E-16 ) ) ;
#96 = APPROVAL ( #30, 'UNSPECIFIED' ) ;
#97 = DIRECTION ( 'NONE',  ( -3.491481338843133355E-15, 1.224646799147353207E-16, -1.000000000000000000 ) ) ;
#98 = DIRECTION ( 'NONE',  ( 3.491481338843133355E-15, -1.219242935835426903E-16, 1.000000000000000000 ) ) ;
#99 = CARTESIAN_POINT ( 'NONE',  ( 9.426999614876460059E-15, -3.291955926755652440E-16, 2.699999999999999734 ) ) ;
#100 = AXIS2_PLACEMENT_3D ( 'NONE', #40, #59, #224 ) ;
#101 = PRODUCT_DEFINITION ( 'UNKNOWN', '', #2, #135 ) ;
#102 = SHAPE_DEFINITION_REPRESENTATION ( #221, #38 ) ;
#103 = MANIFOLD_SOLID_BREP ( 'Corps-Déplacer/Copier1[1]', #49 ) ;
#104 = AXIS2_PLACEMENT_3D ( 'NONE', #79, #22, #43 ) ;
#105 = ORIENTED_EDGE ( 'NONE', *, *, #226, .T. ) ;
#106 = ORIENTED_EDGE ( 'NONE', *, *, #11, .T. ) ;
#107 = CONICAL_SURFACE ( 'NONE', #225, 1.199999999999995959, 0.7853981633974468357 ) ;
#108 = LOCAL_TIME ( 11, 35, 28.00000000000000000, #119 ) ;
#109 = DIRECTION ( 'NONE',  ( 3.491481338843133355E-15, -1.224646799147353207E-16, 1.000000000000000000 ) ) ;
#110 = CYLINDRICAL_SURFACE ( 'NONE', #104, 0.4499999999999998446 ) ;
#111 = DIRECTION ( 'NONE',  ( -3.491481338843133355E-15, 1.224646799147353207E-16, -1.000000000000000000 ) ) ;
#112 = DIRECTION ( 'NONE',  ( -4.316638776869437357E-31, -1.000000000000000000, -1.219242935835426903E-16 ) ) ;
#113 = DIRECTION ( 'NONE',  ( -4.275831445896958607E-31, -1.000000000000000000, -1.224646799147353207E-16 ) ) ;
#114 = CARTESIAN_POINT ( 'NONE',  ( -2.734837563809124309E-30, -0.4499999999999999001, -7.832886097324194730E-16 ) ) ;
#115 = CARTESIAN_POINT ( 'NONE',  ( 2.402822912970692054E-14, -1.499999999999995781, 6.881958343122185795 ) ) ;
#116 = COORDINATED_UNIVERSAL_TIME_OFFSET ( 1, 0, .AHEAD. ) ;
#117 = PERSON_AND_ORGANIZATION_ROLE ( 'creator' ) ;
#118 = EDGE_CURVE ( 'NONE', #85, #85, #138, .T. ) ;
#119 = COORDINATED_UNIVERSAL_TIME_OFFSET ( 1, 0, .AHEAD. ) ;
#120 = PERSON_AND_ORGANIZATION ( #126, #66 ) ;
#121 = ORIENTED_EDGE ( 'NONE', *, *, #236, .T. ) ;
#122 = ORIENTED_EDGE ( 'NONE', *, *, #118, .F. ) ;
#123 = CIRCLE ( 'NONE', #240, 1.499999999999996669 ) ;
#124 = PERSON_AND_ORGANIZATION_ROLE ( 'creator' ) ;
#125 = APPLICATION_CONTEXT ( 'configuration controlled 3d designs of mechanical parts and assemblies' ) ;
#126 = PERSON ( 'UNSPECIFIED', 'UNSPECIFIED', 'UNSPECIFIED', ('UNSPECIFIED'), ('UNSPECIFIED'), ('UNSPECIFIED') ) ;
#127 = LOCAL_TIME ( 11, 35, 28.00000000000000000, #194 ) ;
#128 = DIRECTION ( 'NONE',  ( 0.0000000000000000000, -1.000000000000000000, 0.0000000000000000000 ) ) ;
#129 = FACE_BOUND ( 'NONE', #34, .T. ) ;
#130 = FACE_OUTER_BOUND ( 'NONE', #199, .T. ) ;
#131 = ADVANCED_FACE ( 'NONE', ( #165, #242 ), #110, .T. ) ;
#132 = DIRECTION ( 'NONE',  ( 0.0000000000000000000, 1.000000000000000000, 0.0000000000000000000 ) ) ;
#133 = CIRCLE ( 'NONE', #28, 0.4499999999999999001 ) ;
#134 = DIRECTION ( 'NONE',  ( -4.275831445896958607E-31, -1.000000000000000000, -1.224646799147353207E-16 ) ) ;
#135 = DESIGN_CONTEXT ( 'detailed design', #164, 'design' ) ;
#136 = CARTESIAN_POINT ( 'NONE',  ( 1.316288464743861212E-13, 1.499999999999992228, 37.69999999999999574 ) ) ;
#137 = DATE_TIME_ROLE ( 'creation_date' ) ;
#138 = CIRCLE ( 'NONE', #100, 1.499999999999994893 ) ;
#139 = PERSON_AND_ORGANIZATION ( #126, #66 ) ;
#140 = APPLICATION_PROTOCOL_DEFINITION ( 'international standard', 'config_control_design', 1994, #125 ) ;
#141 = LOCAL_TIME ( 11, 35, 28.00000000000000000, #116 ) ;
#142 = PERSON_AND_ORGANIZATION ( #126, #66 ) ;
#143 = EDGE_LOOP ( 'NONE', ( #15 ) ) ;
#144 = CIRCLE ( 'NONE', #200, 0.4499999999999997891 ) ;
#145 = PERSON_AND_ORGANIZATION_ROLE ( 'classification_officer' ) ;
#146 = EDGE_CURVE ( 'NONE', #65, #65, #123, .T. ) ;
#147 = DIRECTION ( 'NONE',  ( 0.0000000000000000000, -1.000000000000000000, 0.0000000000000000000 ) ) ;
#148 = AXIS2_PLACEMENT_3D ( 'NONE', #23, #184, #170 ) ;
#149 = LOCAL_TIME ( 11, 35, 28.00000000000000000, #86 ) ;
#150 = FACE_OUTER_BOUND ( 'NONE', #163, .T. ) ;
#151 = CARTESIAN_POINT ( 'NONE',  ( 1.316288464743861212E-13, -4.616918432785521081E-15, 37.69999999999999574 ) ) ;
#152 = DIRECTION ( 'NONE',  ( 3.491481338843133355E-15, -1.224646799147353207E-16, 1.000000000000000000 ) ) ;
#153 = APPROVAL_DATE_TIME ( #83, #57 ) ;
#154 = CC_DESIGN_PERSON_AND_ORGANIZATION_ASSIGNMENT ( #120, #124, ( #2 ) ) ;
#155 = APPROVAL_STATUS ( 'not_yet_approved' ) ;
#156 = DIRECTION ( 'NONE',  ( 0.0000000000000000000, 1.000000000000000000, 0.0000000000000000000 ) ) ;
#157 = CC_DESIGN_DATE_AND_TIME_ASSIGNMENT ( #61, #137, ( #101 ) ) ;
#158 =( NAMED_UNIT ( * ) PLANE_ANGLE_UNIT ( ) SI_UNIT ( $, .RADIAN. ) );
#159 = ORIENTED_EDGE ( 'NONE', *, *, #146, .F. ) ;
#160 = CC_DESIGN_APPROVAL ( #57, ( #101 ) ) ;
#161 = PERSON_AND_ORGANIZATION ( #126, #66 ) ;
#162 = CIRCLE ( 'NONE', #81, 1.199999999999995959 ) ;
#163 = EDGE_LOOP ( 'NONE', ( #54 ) ) ;
#164 = APPLICATION_CONTEXT ( 'configuration controlled 3d designs of mechanical parts and assemblies' ) ;
#165 = FACE_OUTER_BOUND ( 'NONE', #203, .T. ) ;
#166 = CARTESIAN_POINT ( 'NONE',  ( 1.326762908760390423E-13, -4.653657836759941941E-15, 38.00000000000000000 ) ) ;
#167 = AXIS2_PLACEMENT_3D ( 'NONE', #228, #73, #147 ) ;
#168 = DIRECTION ( 'NONE',  ( 4.275831445896958607E-31, 1.000000000000000000, 1.224646799147353207E-16 ) ) ;
#169 = DIRECTION ( 'NONE',  ( 3.491481338843133355E-15, -1.219242935835426903E-16, 1.000000000000000000 ) ) ;
#170 = DIRECTION ( 'NONE',  ( 4.275831445896958607E-31, 1.000000000000000000, 1.224646799147353207E-16 ) ) ;
#171 = AXIS2_PLACEMENT_3D ( 'NONE', #214, #64, #234 ) ;
#172 = ADVANCED_FACE ( 'NONE', ( #210, #94 ), #182, .F. ) ;
#173 = FACE_OUTER_BOUND ( 'NONE', #70, .T. ) ;
#174 =( NAMED_UNIT ( * ) SI_UNIT ( $, .STERADIAN. ) SOLID_ANGLE_UNIT ( ) );
#175 = APPROVAL_STATUS ( 'not_yet_approved' ) ;
#176 = CALENDAR_DATE ( 2021, 1, 11 ) ;
#177 = ORIENTED_EDGE ( 'NONE', *, *, #42, .F. ) ;
#178 = CC_DESIGN_DATE_AND_TIME_ASSIGNMENT ( #90, #89, ( #219 ) ) ;
#179 = PERSON_AND_ORGANIZATION ( #126, #66 ) ;
#180 = APPROVAL_DATE_TIME ( #71, #96 ) ;
#181 = ORIENTED_EDGE ( 'NONE', *, *, #236, .F. ) ;
#182 = TOROIDAL_SURFACE ( 'NONE', #32, 2.450000000000000622, 2.000000000000000444 ) ;
#183 = DIRECTION ( 'NONE',  ( 0.0000000000000000000, -1.000000000000000000, 0.0000000000000000000 ) ) ;
#184 = DIRECTION ( 'NONE',  ( -3.491481338843133355E-15, 1.224646799147353207E-16, -1.000000000000000000 ) ) ;
#185 = DIRECTION ( 'NONE',  ( -4.256963957985710640E-31, -1.000000000000000000, -1.219242935835426903E-16 ) ) ;
#186 = CC_DESIGN_PERSON_AND_ORGANIZATION_ASSIGNMENT ( #161, #87, ( #2 ) ) ;
#187 = DIRECTION ( 'NONE',  ( 3.491481338843133355E-15, -1.219242935835426903E-16, 1.000000000000000000 ) ) ;
#188 = PLANE ( 'NONE',  #148 ) ;
#189 = MANIFOLD_SOLID_BREP ( 'Corps-Déplacer/Copier1[2]', #91 ) ;
#190 = ADVANCED_FACE ( 'NONE', ( #129, #74 ), #69, .T. ) ;
#191 = CARTESIAN_POINT ( 'NONE',  ( 1.326762908760390423E-13, 1.199999999999991518, 38.00000000000000000 ) ) ;
#192 = PERSON_AND_ORGANIZATION_ROLE ( 'design_owner' ) ;
#193 = PERSON_AND_ORGANIZATION ( #126, #66 ) ;
#194 = COORDINATED_UNIVERSAL_TIME_OFFSET ( 1, 0, .AHEAD. ) ;
#195 = AXIS2_PLACEMENT_3D ( 'NONE', #21, #97, #168 ) ;
#196 = ADVANCED_FACE ( 'NONE', ( #60 ), #188, .F. ) ;
#197 = APPROVAL_ROLE ( '' ) ;
#198 = ORIENTED_EDGE ( 'NONE', *, *, #11, .F. ) ;
#199 = EDGE_LOOP ( 'NONE', ( #72 ) ) ;
#200 = AXIS2_PLACEMENT_3D ( 'NONE', #55, #98, #128 ) ;
#201 = CC_DESIGN_APPROVAL ( #96, ( #219 ) ) ;
#202 = EDGE_LOOP ( 'NONE', ( #177 ) ) ;
#203 = EDGE_LOOP ( 'NONE', ( #105 ) ) ;
#204 = APPROVAL_PERSON_ORGANIZATION ( #139, #57, #48 ) ;
#205 = DIRECTION ( 'NONE',  ( -4.275831445896958607E-31, -1.000000000000000000, -1.224646799147353207E-16 ) ) ;
#206 = APPROVAL ( #175, 'UNSPECIFIED' ) ;
#207 = FACE_OUTER_BOUND ( 'NONE', #16, .T. ) ;
#208 = CARTESIAN_POINT ( 'NONE',  ( 9.426999614876461637E-15, 1.124819836996387048E-32, 2.700000000000000178 ) ) ;
#209 = AXIS2_PLACEMENT_3D ( 'NONE', #78, #169, #39 ) ;
#210 = FACE_OUTER_BOUND ( 'NONE', #35, .T. ) ;
#211 = PLANE ( 'NONE',  #62 ) ;
#212 = CARTESIAN_POINT ( 'NONE',  ( 9.426999614876460059E-15, -0.4500000000000001221, 2.699999999999999734 ) ) ;
#213 = AXIS2_PLACEMENT_3D ( 'NONE', #41, #152, #113 ) ;
#214 = CARTESIAN_POINT ( 'NONE',  ( 0.0000000000000000000, 0.0000000000000000000, 0.0000000000000000000 ) ) ;
#215 = VERTEX_POINT ( 'NONE', #114 ) ;
#216 = ADVANCED_FACE ( 'NONE', ( #5 ), #211, .F. ) ;
#217 = PERSON_AND_ORGANIZATION ( #126, #66 ) ;
#218 =( GEOMETRIC_REPRESENTATION_CONTEXT ( 3 ) GLOBAL_UNCERTAINTY_ASSIGNED_CONTEXT ( ( #232 ) ) GLOBAL_UNIT_ASSIGNED_CONTEXT ( ( #44, #158, #174 ) ) REPRESENTATION_CONTEXT ( 'NONE', 'WORKASPACE' ) );
#219 = SECURITY_CLASSIFICATION ( '', '', #239 ) ;
#220 = EDGE_CURVE ( 'NONE', #26, #26, #144, .T. ) ;
#221 = PRODUCT_DEFINITION_SHAPE ( 'NONE', 'NONE',  #101 ) ;
#222 = CALENDAR_DATE ( 2021, 1, 11 ) ;
#223 = ORIENTED_EDGE ( 'NONE', *, *, #42, .T. ) ;
#224 = DIRECTION ( 'NONE',  ( 0.0000000000000000000, -1.000000000000000000, 0.0000000000000000000 ) ) ;
#225 = AXIS2_PLACEMENT_3D ( 'NONE', #8, #233, #156 ) ;
#226 = EDGE_CURVE ( 'NONE', #215, #215, #133, .T. ) ;
#227 = CYLINDRICAL_SURFACE ( 'NONE', #195, 1.499999999999994893 ) ;
#228 = CARTESIAN_POINT ( 'NONE',  ( 3.705861487994844518E-14, -1.294105567787277749E-15, 10.61400915069116202 ) ) ;
#229 = CARTESIAN_POINT ( 'NONE',  ( 9.426999614876461637E-15, 1.124819836996387048E-32, 2.700000000000000178 ) ) ;
#230 = CC_DESIGN_SECURITY_CLASSIFICATION ( #219, ( #2 ) ) ;
#231 = DIRECTION ( 'NONE',  ( 3.491481338843133355E-15, -1.219242935835426903E-16, 1.000000000000000000 ) ) ;
#232 = UNCERTAINTY_MEASURE_WITH_UNIT (LENGTH_MEASURE( 1.000000000000000082E-05 ), #44, 'distance_accuracy_value', 'NONE');
#233 = DIRECTION ( 'NONE',  ( -3.491481338843133355E-15, 1.224646799147353207E-16, -1.000000000000000000 ) ) ;
#234 = DIRECTION ( 'NONE',  ( 1.000000000000000000, 0.0000000000000000000, 0.0000000000000000000 ) ) ;
#235 = FACE_BOUND ( 'NONE', #93, .T. ) ;
#236 = EDGE_CURVE ( 'NONE', #24, #24, #162, .T. ) ;
#237 = EDGE_LOOP ( 'NONE', ( #198 ) ) ;
#238 = ADVANCED_FACE ( 'NONE', ( #150, #207 ), #227, .T. ) ;
#239 = SECURITY_CLASSIFICATION_LEVEL ( 'unclassified' ) ;
#240 = AXIS2_PLACEMENT_3D ( 'NONE', #151, #111, #132 ) ;
#241 = EDGE_LOOP ( 'NONE', ( #106 ) ) ;
#242 = FACE_OUTER_BOUND ( 'NONE', #237, .T. ) ;
#243 = ADVANCED_FACE ( 'NONE', ( #173, #235 ), #107, .T. ) ;
ENDSEC;
END-ISO-10303-21;
