ISO-10303-21;
HEADER;
FILE_DESCRIPTION (( 'STEP AP203' ),
    '1' );
FILE_NAME ('60237.step',
    '2021-11-09T09:13:08',
    ( '' ),
    ( '' ),
    'SwSTEP 2.0',
    'SolidWorks 2019',
    '' );
FILE_SCHEMA (( 'CONFIG_CONTROL_DESIGN' ));
ENDSEC;

DATA;
#1 = ADVANCED_BREP_SHAPE_REPRESENTATION ( '60237', ( #89, #83, #97 ), #43 ) ;
#2 = APPROVAL_PERSON_ORGANIZATION ( #130, #73, #158 ) ;
#3 = EDGE_LOOP ( 'NONE', ( #174 ) ) ;
#4 = PRODUCT_DEFINITION_FORMATION_WITH_SPECIFIED_SOURCE ( 'ANY', '', #141, .NOT_KNOWN. ) ;
#5 = EDGE_LOOP ( 'NONE', ( #112 ) ) ;
#6 = CC_DESIGN_DATE_AND_TIME_ASSIGNMENT ( #14, #111, ( #58 ) ) ;
#7 = CONICAL_SURFACE ( 'NONE', #172, 6.000000000000003553, 0.7853981633974482790 ) ;
#8 = PLANE ( 'NONE',  #77 ) ;
#9 = CARTESIAN_POINT ( 'NONE',  ( 0.0000000000000000000, 6.000000000000000000, 0.0000000000000000000 ) ) ;
#10 = APPROVAL_PERSON_ORGANIZATION ( #40, #75, #78 ) ;
#11 = PLANE ( 'NONE',  #155 ) ;
#12 = DATE_AND_TIME ( #41, #129 ) ;
#13 = PERSON_AND_ORGANIZATION ( #192, #188 ) ;
#14 = DATE_AND_TIME ( #15, #197 ) ;
#15 = CALENDAR_DATE ( 2021, 9, 11 ) ;
#16 = APPROVAL_STATUS ( 'not_yet_approved' ) ;
#17 = EDGE_LOOP ( 'NONE', ( #95 ) ) ;
#18 = CC_DESIGN_PERSON_AND_ORGANIZATION_ASSIGNMENT ( #13, #168, ( #58 ) ) ;
#19 = PLANE ( 'NONE',  #179 ) ;
#20 = CIRCLE ( 'NONE', #53, 6.000000000000000000 ) ;
#21 = CARTESIAN_POINT ( 'NONE',  ( 3.491481338843133355E-13, -1.224646799147353217E-14, 100.0000000000000000 ) ) ;
#22 = CYLINDRICAL_SURFACE ( 'NONE', #71, 6.000000000000000000 ) ;
#23 = DIRECTION ( 'NONE',  ( 4.275831445896959482E-31, 1.000000000000000000, 1.224646799147353207E-16 ) ) ;
#24 = CLOSED_SHELL ( 'NONE', ( #118, #138, #26 ) ) ;
#25 = CARTESIAN_POINT ( 'NONE',  ( 3.474023932148917752E-13, -1.218523565151616460E-14, 99.50000000000000000 ) ) ;
#26 = ADVANCED_FACE ( 'NONE', ( #39 ), #11, .T. ) ;
#27 = PERSON_AND_ORGANIZATION ( #192, #188 ) ;
#28 = VERTEX_POINT ( 'NONE', #79 ) ;
#29 = CC_DESIGN_PERSON_AND_ORGANIZATION_ASSIGNMENT ( #104, #167, ( #4 ) ) ;
#30 = VERTEX_POINT ( 'NONE', #170 ) ;
#31 = APPROVAL_ROLE ( '' ) ;
#32 = ADVANCED_FACE ( 'NONE', ( #164, #66 ), #117, .T. ) ;
#33 = ORIENTED_EDGE ( 'NONE', *, *, #55, .F. ) ;
#34 = LOCAL_TIME ( 10, 13, 8.000000000000000000, #96 ) ;
#35 = DIRECTION ( 'NONE',  ( -3.491481338843133355E-15, 1.224646799147353207E-16, -1.000000000000000000 ) ) ;
#36 = DIRECTION ( 'NONE',  ( -3.491481338843133355E-15, 1.224646799147353207E-16, -1.000000000000000000 ) ) ;
#37 = DIRECTION ( 'NONE',  ( 4.275831445896958607E-31, 1.000000000000000000, 1.224646799147353207E-16 ) ) ;
#38 = CARTESIAN_POINT ( 'NONE',  ( -1.282749433769087757E-30, 4.499279347985572824E-32, -3.673940397442059868E-16 ) ) ;
#39 = FACE_OUTER_BOUND ( 'NONE', #5, .T. ) ;
#40 = PERSON_AND_ORGANIZATION ( #192, #188 ) ;
#41 = CALENDAR_DATE ( 2021, 9, 11 ) ;
#42 = COORDINATED_UNIVERSAL_TIME_OFFSET ( 1, 0, .AHEAD. ) ;
#43 =( GEOMETRIC_REPRESENTATION_CONTEXT ( 3 ) GLOBAL_UNCERTAINTY_ASSIGNED_CONTEXT ( ( #113 ) ) GLOBAL_UNIT_ASSIGNED_CONTEXT ( ( #200, #154, #150 ) ) REPRESENTATION_CONTEXT ( 'NONE', 'WORKASPACE' ) );
#44 = APPROVAL_PERSON_ORGANIZATION ( #59, #64, #31 ) ;
#45 = APPLICATION_PROTOCOL_DEFINITION ( 'international standard', 'config_control_design', 1994, #109 ) ;
#46 = ORIENTED_EDGE ( 'NONE', *, *, #48, .T. ) ;
#47 = DESIGN_CONTEXT ( 'detailed design', #109, 'design' ) ;
#48 = EDGE_CURVE ( 'NONE', #119, #119, #20, .T. ) ;
#49 = CC_DESIGN_PERSON_AND_ORGANIZATION_ASSIGNMENT ( #128, #203, ( #141 ) ) ;
#50 = DIRECTION ( 'NONE',  ( -3.491481338843133355E-15, 1.224646799147353207E-16, -1.000000000000000000 ) ) ;
#51 = ORIENTED_EDGE ( 'NONE', *, *, #70, .F. ) ;
#52 = DIRECTION ( 'NONE',  ( 0.0000000000000000000, 1.000000000000000000, 0.0000000000000000000 ) ) ;
#53 = AXIS2_PLACEMENT_3D ( 'NONE', #182, #50, #193 ) ;
#54 = DIRECTION ( 'NONE',  ( 0.0000000000000000000, 1.000000000000000000, 0.0000000000000000000 ) ) ;
#55 = EDGE_CURVE ( 'NONE', #88, #88, #159, .T. ) ;
#56 = DIRECTION ( 'NONE',  ( -4.275831445896958607E-31, -1.000000000000000000, -1.224646799147353207E-16 ) ) ;
#57 = DATE_AND_TIME ( #185, #175 ) ;
#58 = SECURITY_CLASSIFICATION ( '', '', #169 ) ;
#59 = PERSON_AND_ORGANIZATION ( #192, #188 ) ;
#60 = CC_DESIGN_DATE_AND_TIME_ASSIGNMENT ( #12, #171, ( #110 ) ) ;
#61 = PERSON_AND_ORGANIZATION_ROLE ( 'creator' ) ;
#62 = MECHANICAL_CONTEXT ( 'NONE', #186, 'mechanical' ) ;
#63 = EDGE_LOOP ( 'NONE', ( #191 ) ) ;
#64 = APPROVAL ( #16, 'UNSPECIFIED' ) ;
#65 = CALENDAR_DATE ( 2021, 9, 11 ) ;
#66 = FACE_OUTER_BOUND ( 'NONE', #82, .T. ) ;
#67 = DIRECTION ( 'NONE',  ( 3.491481338843133355E-15, -1.224646799147353207E-16, 1.000000000000000000 ) ) ;
#68 = DIRECTION ( 'NONE',  ( -3.491481338843133355E-15, 1.224646799147353207E-16, -1.000000000000000000 ) ) ;
#69 = VERTEX_POINT ( 'NONE', #153 ) ;
#70 = EDGE_CURVE ( 'NONE', #69, #69, #184, .T. ) ;
#71 = AXIS2_PLACEMENT_3D ( 'NONE', #161, #36, #99 ) ;
#72 = DIRECTION ( 'NONE',  ( 4.275831445896958607E-31, 1.000000000000000000, 1.224646799147353207E-16 ) ) ;
#73 = APPROVAL ( #93, 'UNSPECIFIED' ) ;
#74 = CALENDAR_DATE ( 2021, 9, 11 ) ;
#75 = APPROVAL ( #108, 'UNSPECIFIED' ) ;
#76 = COORDINATED_UNIVERSAL_TIME_OFFSET ( 1, 0, .AHEAD. ) ;
#77 = AXIS2_PLACEMENT_3D ( 'NONE', #198, #147, #56 ) ;
#78 = APPROVAL_ROLE ( '' ) ;
#79 = CARTESIAN_POINT ( 'NONE',  ( 1.571166602479409884E-13, 5.999999999999994671, 45.00000000000000000 ) ) ;
#80 = AXIS2_PLACEMENT_3D ( 'NONE', #103, #177, #23 ) ;
#81 = DATE_AND_TIME ( #65, #34 ) ;
#82 = EDGE_LOOP ( 'NONE', ( #133 ) ) ;
#83 = MANIFOLD_SOLID_BREP ( 'Corps-Déplacer/Copier1[2]', #24 ) ;
#84 = PLANE ( 'NONE',  #126 ) ;
#85 = CC_DESIGN_APPROVAL ( #75, ( #110 ) ) ;
#86 = PRODUCT_RELATED_PRODUCT_CATEGORY ( 'detail', '', ( #141 ) ) ;
#87 = CARTESIAN_POINT ( 'NONE',  ( 0.0000000000000000000, 0.0000000000000000000, 0.0000000000000000000 ) ) ;
#88 = VERTEX_POINT ( 'NONE', #9 ) ;
#89 = MANIFOLD_SOLID_BREP ( 'Corps-Déplacer/Copier1[1]', #143 ) ;
#90 = DIRECTION ( 'NONE',  ( 0.0000000000000000000, 1.000000000000000000, 0.0000000000000000000 ) ) ;
#91 = FACE_BOUND ( 'NONE', #165, .T. ) ;
#92 = PERSON_AND_ORGANIZATION_ROLE ( 'design_supplier' ) ;
#93 = APPROVAL_STATUS ( 'not_yet_approved' ) ;
#94 = CIRCLE ( 'NONE', #120, 6.000000000000000000 ) ;
#95 = ORIENTED_EDGE ( 'NONE', *, *, #55, .T. ) ;
#96 = COORDINATED_UNIVERSAL_TIME_OFFSET ( 1, 0, .AHEAD. ) ;
#97 = AXIS2_PLACEMENT_3D ( 'NONE', #187, #127, #142 ) ;
#98 = FACE_OUTER_BOUND ( 'NONE', #132, .T. ) ;
#99 = DIRECTION ( 'NONE',  ( 4.275831445896959482E-31, 1.000000000000000000, 1.224646799147353207E-16 ) ) ;
#100 = ADVANCED_FACE ( 'NONE', ( #91, #195 ), #7, .T. ) ;
#101 = FACE_OUTER_BOUND ( 'NONE', #173, .T. ) ;
#102 = EDGE_LOOP ( 'NONE', ( #51 ) ) ;
#103 = CARTESIAN_POINT ( 'NONE',  ( -2.565498867538175514E-30, 8.998558695971145647E-32, -7.347880794884119736E-16 ) ) ;
#104 = PERSON_AND_ORGANIZATION ( #192, #188 ) ;
#105 = APPLICATION_PROTOCOL_DEFINITION ( 'international standard', 'config_control_design', 1994, #186 ) ;
#106 = CC_DESIGN_PERSON_AND_ORGANIZATION_ASSIGNMENT ( #189, #61, ( #110 ) ) ;
#107 = AXIS2_PLACEMENT_3D ( 'NONE', #25, #116, #54 ) ;
#108 = APPROVAL_STATUS ( 'not_yet_approved' ) ;
#109 = APPLICATION_CONTEXT ( 'configuration controlled 3d designs of mechanical parts and assemblies' ) ;
#110 = PRODUCT_DEFINITION ( 'UNKNOWN', '', #4, #47 ) ;
#111 = DATE_TIME_ROLE ( 'classification_date' ) ;
#112 = ORIENTED_EDGE ( 'NONE', *, *, #48, .F. ) ;
#113 = UNCERTAINTY_MEASURE_WITH_UNIT (LENGTH_MEASURE( 1.000000000000000082E-05 ), #200, 'distance_accuracy_value', 'NONE');
#114 = APPROVAL_DATE_TIME ( #81, #73 ) ;
#115 = SHAPE_DEFINITION_REPRESENTATION ( #152, #1 ) ;
#116 = DIRECTION ( 'NONE',  ( -3.491481338843133355E-15, 1.224646799147353207E-16, -1.000000000000000000 ) ) ;
#117 = CYLINDRICAL_SURFACE ( 'NONE', #131, 6.000000000000001776 ) ;
#118 = ADVANCED_FACE ( 'NONE', ( #180 ), #19, .T. ) ;
#119 = VERTEX_POINT ( 'NONE', #123 ) ;
#120 = AXIS2_PLACEMENT_3D ( 'NONE', #137, #35, #122 ) ;
#121 = CC_DESIGN_APPROVAL ( #73, ( #58 ) ) ;
#122 = DIRECTION ( 'NONE',  ( 0.0000000000000000000, 1.000000000000000000, 0.0000000000000000000 ) ) ;
#123 = CARTESIAN_POINT ( 'NONE',  ( 1.571166602479409884E-13, 5.999999999999994671, 45.00000000000000000 ) ) ;
#124 = EDGE_CURVE ( 'NONE', #28, #28, #94, .T. ) ;
#125 = COORDINATED_UNIVERSAL_TIME_OFFSET ( 1, 0, .AHEAD. ) ;
#126 = AXIS2_PLACEMENT_3D ( 'NONE', #146, #145, #37 ) ;
#127 = DIRECTION ( 'NONE',  ( 0.0000000000000000000, 0.0000000000000000000, 1.000000000000000000 ) ) ;
#128 = PERSON_AND_ORGANIZATION ( #192, #188 ) ;
#129 = LOCAL_TIME ( 10, 13, 8.000000000000000000, #76 ) ;
#130 = PERSON_AND_ORGANIZATION ( #192, #188 ) ;
#131 = AXIS2_PLACEMENT_3D ( 'NONE', #87, #136, #134 ) ;
#132 = EDGE_LOOP ( 'NONE', ( #33 ) ) ;
#133 = ORIENTED_EDGE ( 'NONE', *, *, #124, .F. ) ;
#134 = DIRECTION ( 'NONE',  ( 4.275831445896958607E-31, 1.000000000000000000, 1.224646799147353207E-16 ) ) ;
#135 = CARTESIAN_POINT ( 'NONE',  ( 1.571166602479409884E-13, 4.499279347985565160E-32, 45.00000000000000000 ) ) ;
#136 = DIRECTION ( 'NONE',  ( -3.491481338843133355E-15, 1.224646799147353207E-16, -1.000000000000000000 ) ) ;
#137 = CARTESIAN_POINT ( 'NONE',  ( 1.571166602479409884E-13, -5.510910596163089556E-15, 45.00000000000000000 ) ) ;
#138 = ADVANCED_FACE ( 'NONE', ( #178, #98 ), #22, .T. ) ;
#139 = DATE_AND_TIME ( #74, #160 ) ;
#140 = ADVANCED_FACE ( 'NONE', ( #162 ), #84, .F. ) ;
#141 = PRODUCT ( '60237', '60237', '', ( #62 ) ) ;
#142 = DIRECTION ( 'NONE',  ( 1.000000000000000000, 0.0000000000000000000, 0.0000000000000000000 ) ) ;
#143 = CLOSED_SHELL ( 'NONE', ( #199, #32, #100, #140 ) ) ;
#144 = AXIS2_PLACEMENT_3D ( 'NONE', #21, #68, #52 ) ;
#145 = DIRECTION ( 'NONE',  ( -3.491481338843133355E-15, 1.224646799147353207E-16, -1.000000000000000000 ) ) ;
#146 = CARTESIAN_POINT ( 'NONE',  ( 3.491481338843133355E-13, 4.124339402320093095E-32, 100.0000000000000000 ) ) ;
#147 = DIRECTION ( 'NONE',  ( 3.491481338843133355E-15, -1.224646799147353207E-16, 1.000000000000000000 ) ) ;
#148 = ORIENTED_EDGE ( 'NONE', *, *, #201, .T. ) ;
#149 = CIRCLE ( 'NONE', #144, 5.500000000000003553 ) ;
#150 =( NAMED_UNIT ( * ) SI_UNIT ( $, .STERADIAN. ) SOLID_ANGLE_UNIT ( ) );
#151 = COORDINATED_UNIVERSAL_TIME_OFFSET ( 1, 0, .AHEAD. ) ;
#152 = PRODUCT_DEFINITION_SHAPE ( 'NONE', 'NONE',  #110 ) ;
#153 = CARTESIAN_POINT ( 'NONE',  ( 3.474023932148917752E-13, 5.999999999999991118, 99.50000000000000000 ) ) ;
#154 =( NAMED_UNIT ( * ) PLANE_ANGLE_UNIT ( ) SI_UNIT ( $, .RADIAN. ) );
#155 = AXIS2_PLACEMENT_3D ( 'NONE', #135, #67, #196 ) ;
#156 = EDGE_LOOP ( 'NONE', ( #46 ) ) ;
#157 = CC_DESIGN_PERSON_AND_ORGANIZATION_ASSIGNMENT ( #27, #92, ( #4 ) ) ;
#158 = APPROVAL_ROLE ( '' ) ;
#159 = CIRCLE ( 'NONE', #80, 6.000000000000000000 ) ;
#160 = LOCAL_TIME ( 10, 13, 8.000000000000000000, #125 ) ;
#161 = CARTESIAN_POINT ( 'NONE',  ( 0.0000000000000000000, 0.0000000000000000000, 0.0000000000000000000 ) ) ;
#162 = FACE_OUTER_BOUND ( 'NONE', #3, .T. ) ;
#163 = DIRECTION ( 'NONE',  ( -3.491481338843133355E-15, 1.224646799147353207E-16, -1.000000000000000000 ) ) ;
#164 = FACE_OUTER_BOUND ( 'NONE', #63, .T. ) ;
#165 = EDGE_LOOP ( 'NONE', ( #148 ) ) ;
#166 = CC_DESIGN_APPROVAL ( #64, ( #4 ) ) ;
#167 = PERSON_AND_ORGANIZATION_ROLE ( 'creator' ) ;
#168 = PERSON_AND_ORGANIZATION_ROLE ( 'classification_officer' ) ;
#169 = SECURITY_CLASSIFICATION_LEVEL ( 'unclassified' ) ;
#170 = CARTESIAN_POINT ( 'NONE',  ( 3.491481338843133355E-13, 5.499999999999991118, 100.0000000000000000 ) ) ;
#171 = DATE_TIME_ROLE ( 'creation_date' ) ;
#172 = AXIS2_PLACEMENT_3D ( 'NONE', #181, #194, #90 ) ;
#173 = EDGE_LOOP ( 'NONE', ( #190 ) ) ;
#174 = ORIENTED_EDGE ( 'NONE', *, *, #201, .F. ) ;
#175 = LOCAL_TIME ( 10, 13, 8.000000000000000000, #42 ) ;
#176 = CC_DESIGN_SECURITY_CLASSIFICATION ( #58, ( #4 ) ) ;
#177 = DIRECTION ( 'NONE',  ( -3.491481338843133355E-15, 1.224646799147353207E-16, -1.000000000000000000 ) ) ;
#178 = FACE_OUTER_BOUND ( 'NONE', #156, .T. ) ;
#179 = AXIS2_PLACEMENT_3D ( 'NONE', #38, #163, #72 ) ;
#180 = FACE_OUTER_BOUND ( 'NONE', #17, .T. ) ;
#181 = CARTESIAN_POINT ( 'NONE',  ( 3.474023932148917752E-13, -1.218523565151616460E-14, 99.50000000000000000 ) ) ;
#182 = CARTESIAN_POINT ( 'NONE',  ( 1.571166602479409884E-13, -5.510910596163089556E-15, 45.00000000000000000 ) ) ;
#183 = APPROVAL_DATE_TIME ( #139, #64 ) ;
#184 = CIRCLE ( 'NONE', #107, 6.000000000000003553 ) ;
#185 = CALENDAR_DATE ( 2021, 9, 11 ) ;
#186 = APPLICATION_CONTEXT ( 'configuration controlled 3d designs of mechanical parts and assemblies' ) ;
#187 = CARTESIAN_POINT ( 'NONE',  ( 0.0000000000000000000, 0.0000000000000000000, 0.0000000000000000000 ) ) ;
#188 = ORGANIZATION ( 'UNSPECIFIED', 'UNSPECIFIED', '' ) ;
#189 = PERSON_AND_ORGANIZATION ( #192, #188 ) ;
#190 = ORIENTED_EDGE ( 'NONE', *, *, #124, .T. ) ;
#191 = ORIENTED_EDGE ( 'NONE', *, *, #70, .T. ) ;
#192 = PERSON ( 'UNSPECIFIED', 'UNSPECIFIED', 'UNSPECIFIED', ('UNSPECIFIED'), ('UNSPECIFIED'), ('UNSPECIFIED') ) ;
#193 = DIRECTION ( 'NONE',  ( 0.0000000000000000000, 1.000000000000000000, 0.0000000000000000000 ) ) ;
#194 = DIRECTION ( 'NONE',  ( -3.491481338843133355E-15, 1.224646799147353207E-16, -1.000000000000000000 ) ) ;
#195 = FACE_OUTER_BOUND ( 'NONE', #102, .T. ) ;
#196 = DIRECTION ( 'NONE',  ( -4.275831445896958607E-31, -1.000000000000000000, -1.224646799147353207E-16 ) ) ;
#197 = LOCAL_TIME ( 10, 13, 8.000000000000000000, #151 ) ;
#198 = CARTESIAN_POINT ( 'NONE',  ( 1.571166602479409884E-13, 4.499279347985565160E-32, 45.00000000000000000 ) ) ;
#199 = ADVANCED_FACE ( 'NONE', ( #101 ), #8, .F. ) ;
#200 =( LENGTH_UNIT ( ) NAMED_UNIT ( * ) SI_UNIT ( .MILLI., .METRE. ) );
#201 = EDGE_CURVE ( 'NONE', #30, #30, #149, .T. ) ;
#202 = APPROVAL_DATE_TIME ( #57, #75 ) ;
#203 = PERSON_AND_ORGANIZATION_ROLE ( 'design_owner' ) ;
ENDSEC;
END-ISO-10303-21;
