ISO-10303-21;
HEADER;
FILE_DESCRIPTION (( 'STEP AP203' ),
    '1' );
FILE_NAME ('60236.step',
    '2021-11-09T09:13:07',
    ( '' ),
    ( '' ),
    'SwSTEP 2.0',
    'SolidWorks 2019',
    '' );
FILE_SCHEMA (( 'CONFIG_CONTROL_DESIGN' ));
ENDSEC;

DATA;
#1 = AXIS2_PLACEMENT_3D ( 'NONE', #71, #116, #194 ) ;
#2 = PERSON_AND_ORGANIZATION ( #135, #98 ) ;
#3 = PLANE ( 'NONE',  #1 ) ;
#4 = COORDINATED_UNIVERSAL_TIME_OFFSET ( 1, 0, .AHEAD. ) ;
#5 = LOCAL_TIME ( 10, 13, 7.000000000000000000, #86 ) ;
#6 = ORIENTED_EDGE ( 'NONE', *, *, #164, .F. ) ;
#7 = ORIENTED_EDGE ( 'NONE', *, *, #66, .T. ) ;
#8 = CARTESIAN_POINT ( 'NONE',  ( 1.396592535537253342E-13, -4.898587196589413026E-15, 40.00000000000000000 ) ) ;
#9 = CARTESIAN_POINT ( 'NONE',  ( 0.0000000000000000000, 0.0000000000000000000, 0.0000000000000000000 ) ) ;
#10 = DIRECTION ( 'NONE',  ( 4.275831445896958607E-31, 1.000000000000000000, 1.224646799147353207E-16 ) ) ;
#11 = FACE_OUTER_BOUND ( 'NONE', #56, .T. ) ;
#12 = CC_DESIGN_PERSON_AND_ORGANIZATION_ASSIGNMENT ( #174, #67, ( #146 ) ) ;
#13 = DIRECTION ( 'NONE',  ( -3.491481338843133355E-15, 1.224646799147353207E-16, -1.000000000000000000 ) ) ;
#14 = APPROVAL_ROLE ( '' ) ;
#15 = COORDINATED_UNIVERSAL_TIME_OFFSET ( 1, 0, .AHEAD. ) ;
#16 = APPROVAL_ROLE ( '' ) ;
#17 = EDGE_LOOP ( 'NONE', ( #54 ) ) ;
#18 = PRODUCT_DEFINITION_SHAPE ( 'NONE', 'NONE',  #151 ) ;
#19 = DATE_AND_TIME ( #85, #45 ) ;
#20 = FACE_OUTER_BOUND ( 'NONE', #101, .T. ) ;
#21 = SECURITY_CLASSIFICATION_LEVEL ( 'unclassified' ) ;
#22 = FACE_OUTER_BOUND ( 'NONE', #50, .T. ) ;
#23 = AXIS2_PLACEMENT_3D ( 'NONE', #171, #166, #26 ) ;
#24 = PERSON_AND_ORGANIZATION ( #135, #98 ) ;
#25 = CARTESIAN_POINT ( 'NONE',  ( 3.491481338843133355E-13, -1.224646799147353217E-14, 100.0000000000000000 ) ) ;
#26 = DIRECTION ( 'NONE',  ( 0.0000000000000000000, 1.000000000000000000, 0.0000000000000000000 ) ) ;
#27 = DIRECTION ( 'NONE',  ( 1.000000000000000000, 0.0000000000000000000, 0.0000000000000000000 ) ) ;
#28 = ADVANCED_FACE ( 'NONE', ( #22 ), #3, .T. ) ;
#29 = PLANE ( 'NONE',  #117 ) ;
#30 = DIRECTION ( 'NONE',  ( -4.275831445896958607E-31, -1.000000000000000000, -1.224646799147353207E-16 ) ) ;
#31 =( GEOMETRIC_REPRESENTATION_CONTEXT ( 3 ) GLOBAL_UNCERTAINTY_ASSIGNED_CONTEXT ( ( #179 ) ) GLOBAL_UNIT_ASSIGNED_CONTEXT ( ( #40, #99, #196 ) ) REPRESENTATION_CONTEXT ( 'NONE', 'WORKASPACE' ) );
#32 = CARTESIAN_POINT ( 'NONE',  ( 1.396592535537253342E-13, 3.749399456654637451E-32, 40.00000000000000000 ) ) ;
#33 = CLOSED_SHELL ( 'NONE', ( #51, #104, #91, #70 ) ) ;
#34 = APPROVAL_DATE_TIME ( #161, #102 ) ;
#35 = CC_DESIGN_APPROVAL ( #36, ( #109 ) ) ;
#36 = APPROVAL ( #82, 'UNSPECIFIED' ) ;
#37 = ADVANCED_FACE ( 'NONE', ( #87, #20 ), #145, .T. ) ;
#38 = CALENDAR_DATE ( 2021, 9, 11 ) ;
#39 = AXIS2_PLACEMENT_3D ( 'NONE', #149, #132, #124 ) ;
#40 =( LENGTH_UNIT ( ) NAMED_UNIT ( * ) SI_UNIT ( .MILLI., .METRE. ) );
#41 = PLANE ( 'NONE',  #137 ) ;
#42 = CIRCLE ( 'NONE', #169, 5.000000000000002665 ) ;
#43 = DIRECTION ( 'NONE',  ( 4.275831445896958607E-31, 1.000000000000000000, 1.224646799147353207E-16 ) ) ;
#44 = CC_DESIGN_PERSON_AND_ORGANIZATION_ASSIGNMENT ( #69, #128, ( #109 ) ) ;
#45 = LOCAL_TIME ( 10, 13, 7.000000000000000000, #15 ) ;
#46 = VERTEX_POINT ( 'NONE', #108 ) ;
#47 = SHAPE_DEFINITION_REPRESENTATION ( #18, #96 ) ;
#48 = ADVANCED_FACE ( 'NONE', ( #11 ), #41, .T. ) ;
#49 = DATE_TIME_ROLE ( 'classification_date' ) ;
#50 = EDGE_LOOP ( 'NONE', ( #129 ) ) ;
#51 = ADVANCED_FACE ( 'NONE', ( #95 ), #29, .F. ) ;
#52 = CLOSED_SHELL ( 'NONE', ( #48, #37, #28 ) ) ;
#53 = APPROVAL_PERSON_ORGANIZATION ( #193, #36, #142 ) ;
#54 = ORIENTED_EDGE ( 'NONE', *, *, #55, .F. ) ;
#55 = EDGE_CURVE ( 'NONE', #148, #148, #42, .T. ) ;
#56 = EDGE_LOOP ( 'NONE', ( #197 ) ) ;
#57 = CC_DESIGN_PERSON_AND_ORGANIZATION_ASSIGNMENT ( #81, #191, ( #151 ) ) ;
#58 = EDGE_LOOP ( 'NONE', ( #163 ) ) ;
#59 = CARTESIAN_POINT ( 'NONE',  ( -2.137915722948479128E-30, 7.498798913309288039E-32, -6.123233995736766282E-16 ) ) ;
#60 = CARTESIAN_POINT ( 'NONE',  ( 3.474023932148917752E-13, -1.218523565151616460E-14, 99.50000000000000000 ) ) ;
#61 = VERTEX_POINT ( 'NONE', #189 ) ;
#62 = DIRECTION ( 'NONE',  ( 4.275831445896958607E-31, 1.000000000000000000, 1.224646799147353207E-16 ) ) ;
#63 = CIRCLE ( 'NONE', #23, 5.000000000000000000 ) ;
#64 = DIRECTION ( 'NONE',  ( 3.491481338843133355E-15, -1.224646799147353207E-16, 1.000000000000000000 ) ) ;
#65 = DATE_AND_TIME ( #162, #175 ) ;
#66 = EDGE_CURVE ( 'NONE', #131, #131, #63, .T. ) ;
#67 = PERSON_AND_ORGANIZATION_ROLE ( 'creator' ) ;
#68 = COORDINATED_UNIVERSAL_TIME_OFFSET ( 1, 0, .AHEAD. ) ;
#69 = PERSON_AND_ORGANIZATION ( #135, #98 ) ;
#70 = ADVANCED_FACE ( 'NONE', ( #76 ), #105, .F. ) ;
#71 = CARTESIAN_POINT ( 'NONE',  ( 1.396592535537253342E-13, 3.749399456654637451E-32, 40.00000000000000000 ) ) ;
#72 = EDGE_LOOP ( 'NONE', ( #6 ) ) ;
#73 = ORIENTED_EDGE ( 'NONE', *, *, #55, .T. ) ;
#74 = EDGE_CURVE ( 'NONE', #61, #61, #130, .T. ) ;
#75 = DIRECTION ( 'NONE',  ( -3.491481338843133355E-15, 1.224646799147353207E-16, -1.000000000000000000 ) ) ;
#76 = FACE_OUTER_BOUND ( 'NONE', #72, .T. ) ;
#77 = FACE_OUTER_BOUND ( 'NONE', #17, .T. ) ;
#78 = FACE_BOUND ( 'NONE', #58, .T. ) ;
#79 = CC_DESIGN_APPROVAL ( #102, ( #146 ) ) ;
#80 = APPROVAL_PERSON_ORGANIZATION ( #2, #114, #14 ) ;
#81 = PERSON_AND_ORGANIZATION ( #135, #98 ) ;
#82 = APPROVAL_STATUS ( 'not_yet_approved' ) ;
#83 = APPROVAL_STATUS ( 'not_yet_approved' ) ;
#84 = EDGE_LOOP ( 'NONE', ( #103 ) ) ;
#85 = CALENDAR_DATE ( 2021, 9, 11 ) ;
#86 = COORDINATED_UNIVERSAL_TIME_OFFSET ( 1, 0, .AHEAD. ) ;
#87 = FACE_OUTER_BOUND ( 'NONE', #182, .T. ) ;
#88 = APPROVAL_PERSON_ORGANIZATION ( #110, #102, #16 ) ;
#89 = ORIENTED_EDGE ( 'NONE', *, *, #74, .T. ) ;
#90 = DIRECTION ( 'NONE',  ( 0.0000000000000000000, 1.000000000000000000, 0.0000000000000000000 ) ) ;
#91 = ADVANCED_FACE ( 'NONE', ( #78, #77 ), #127, .T. ) ;
#92 = DIRECTION ( 'NONE',  ( 0.0000000000000000000, 1.000000000000000000, 0.0000000000000000000 ) ) ;
#93 = AXIS2_PLACEMENT_3D ( 'NONE', #25, #201, #90 ) ;
#94 = AXIS2_PLACEMENT_3D ( 'NONE', #133, #190, #92 ) ;
#95 = FACE_OUTER_BOUND ( 'NONE', #185, .T. ) ;
#96 = ADVANCED_BREP_SHAPE_REPRESENTATION ( '60236', ( #155, #154, #198 ), #31 ) ;
#97 = AXIS2_PLACEMENT_3D ( 'NONE', #167, #75, #10 ) ;
#98 = ORGANIZATION ( 'UNSPECIFIED', 'UNSPECIFIED', '' ) ;
#99 =( NAMED_UNIT ( * ) PLANE_ANGLE_UNIT ( ) SI_UNIT ( $, .RADIAN. ) );
#100 = PERSON_AND_ORGANIZATION ( #135, #98 ) ;
#101 = EDGE_LOOP ( 'NONE', ( #147 ) ) ;
#102 = APPROVAL ( #83, 'UNSPECIFIED' ) ;
#103 = ORIENTED_EDGE ( 'NONE', *, *, #74, .F. ) ;
#104 = ADVANCED_FACE ( 'NONE', ( #202, #134 ), #150, .T. ) ;
#105 = PLANE ( 'NONE',  #180 ) ;
#106 = CARTESIAN_POINT ( 'NONE',  ( 3.474023932148917752E-13, 4.999999999999990230, 99.50000000000000000 ) ) ;
#107 = CARTESIAN_POINT ( 'NONE',  ( -1.068957861474239564E-30, 3.749399456654644020E-32, -3.061616997868383141E-16 ) ) ;
#108 = CARTESIAN_POINT ( 'NONE',  ( 0.0000000000000000000, 5.000000000000000000, 0.0000000000000000000 ) ) ;
#109 = SECURITY_CLASSIFICATION ( '', '', #21 ) ;
#110 = PERSON_AND_ORGANIZATION ( #135, #98 ) ;
#111 = DESIGN_CONTEXT ( 'detailed design', #172, 'design' ) ;
#112 = APPROVAL_DATE_TIME ( #19, #114 ) ;
#113 = CC_DESIGN_APPROVAL ( #114, ( #151 ) ) ;
#114 = APPROVAL ( #158, 'UNSPECIFIED' ) ;
#115 = APPLICATION_PROTOCOL_DEFINITION ( 'international standard', 'config_control_design', 1994, #119 ) ;
#116 = DIRECTION ( 'NONE',  ( 3.491481338843133355E-15, -1.224646799147353207E-16, 1.000000000000000000 ) ) ;
#117 = AXIS2_PLACEMENT_3D ( 'NONE', #32, #64, #30 ) ;
#118 = EDGE_CURVE ( 'NONE', #46, #46, #121, .T. ) ;
#119 = APPLICATION_CONTEXT ( 'configuration controlled 3d designs of mechanical parts and assemblies' ) ;
#120 = CARTESIAN_POINT ( 'NONE',  ( 1.396592535537253342E-13, 4.999999999999994671, 40.00000000000000000 ) ) ;
#121 = CIRCLE ( 'NONE', #157, 5.000000000000000000 ) ;
#122 = CC_DESIGN_SECURITY_CLASSIFICATION ( #109, ( #146 ) ) ;
#123 = DIRECTION ( 'NONE',  ( -3.491481338843133355E-15, 1.224646799147353207E-16, -1.000000000000000000 ) ) ;
#124 = DIRECTION ( 'NONE',  ( 4.275831445896958607E-31, 1.000000000000000000, 1.224646799147353207E-16 ) ) ;
#125 = DATE_AND_TIME ( #140, #5 ) ;
#126 = PERSON_AND_ORGANIZATION_ROLE ( 'design_owner' ) ;
#127 = CONICAL_SURFACE ( 'NONE', #94, 5.000000000000002665, 0.7853981633974482790 ) ;
#128 = PERSON_AND_ORGANIZATION_ROLE ( 'classification_officer' ) ;
#129 = ORIENTED_EDGE ( 'NONE', *, *, #66, .F. ) ;
#130 = CIRCLE ( 'NONE', #184, 5.000000000000000000 ) ;
#131 = VERTEX_POINT ( 'NONE', #120 ) ;
#132 = DIRECTION ( 'NONE',  ( -3.491481338843133355E-15, 1.224646799147353207E-16, -1.000000000000000000 ) ) ;
#133 = CARTESIAN_POINT ( 'NONE',  ( 3.474023932148917752E-13, -1.218523565151616460E-14, 99.50000000000000000 ) ) ;
#134 = FACE_OUTER_BOUND ( 'NONE', #84, .T. ) ;
#135 = PERSON ( 'UNSPECIFIED', 'UNSPECIFIED', 'UNSPECIFIED', ('UNSPECIFIED'), ('UNSPECIFIED'), ('UNSPECIFIED') ) ;
#136 = PRODUCT ( '60236', '60236', '', ( #165 ) ) ;
#137 = AXIS2_PLACEMENT_3D ( 'NONE', #107, #188, #43 ) ;
#138 = LOCAL_TIME ( 10, 13, 7.000000000000000000, #4 ) ;
#139 = DIRECTION ( 'NONE',  ( 4.275831445896958607E-31, 1.000000000000000000, 1.224646799147353207E-16 ) ) ;
#140 = CALENDAR_DATE ( 2021, 9, 11 ) ;
#141 = PRODUCT_RELATED_PRODUCT_CATEGORY ( 'detail', '', ( #136 ) ) ;
#142 = APPROVAL_ROLE ( '' ) ;
#143 = DATE_TIME_ROLE ( 'creation_date' ) ;
#144 = APPROVAL_DATE_TIME ( #176, #36 ) ;
#145 = CYLINDRICAL_SURFACE ( 'NONE', #97, 5.000000000000000000 ) ;
#146 = PRODUCT_DEFINITION_FORMATION_WITH_SPECIFIED_SOURCE ( 'ANY', '', #136, .NOT_KNOWN. ) ;
#147 = ORIENTED_EDGE ( 'NONE', *, *, #118, .F. ) ;
#148 = VERTEX_POINT ( 'NONE', #106 ) ;
#149 = CARTESIAN_POINT ( 'NONE',  ( 0.0000000000000000000, 0.0000000000000000000, 0.0000000000000000000 ) ) ;
#150 = CYLINDRICAL_SURFACE ( 'NONE', #39, 5.000000000000000888 ) ;
#151 = PRODUCT_DEFINITION ( 'UNKNOWN', '', #146, #111 ) ;
#152 = DIRECTION ( 'NONE',  ( 0.0000000000000000000, 1.000000000000000000, 0.0000000000000000000 ) ) ;
#153 = LOCAL_TIME ( 10, 13, 7.000000000000000000, #178 ) ;
#154 = MANIFOLD_SOLID_BREP ( 'Corps-Déplacer/Copier1[2]', #52 ) ;
#155 = MANIFOLD_SOLID_BREP ( 'Corps-Déplacer/Copier1[1]', #33 ) ;
#156 = DIRECTION ( 'NONE',  ( 0.0000000000000000000, 1.000000000000000000, 0.0000000000000000000 ) ) ;
#157 = AXIS2_PLACEMENT_3D ( 'NONE', #59, #13, #62 ) ;
#158 = APPROVAL_STATUS ( 'not_yet_approved' ) ;
#159 = PERSON_AND_ORGANIZATION_ROLE ( 'design_supplier' ) ;
#160 = CIRCLE ( 'NONE', #93, 4.500000000000002665 ) ;
#161 = DATE_AND_TIME ( #38, #138 ) ;
#162 = CALENDAR_DATE ( 2021, 9, 11 ) ;
#163 = ORIENTED_EDGE ( 'NONE', *, *, #164, .T. ) ;
#164 = EDGE_CURVE ( 'NONE', #173, #173, #160, .T. ) ;
#165 = MECHANICAL_CONTEXT ( 'NONE', #119, 'mechanical' ) ;
#166 = DIRECTION ( 'NONE',  ( -3.491481338843133355E-15, 1.224646799147353207E-16, -1.000000000000000000 ) ) ;
#167 = CARTESIAN_POINT ( 'NONE',  ( 0.0000000000000000000, 0.0000000000000000000, 0.0000000000000000000 ) ) ;
#168 = DIRECTION ( 'NONE',  ( 0.0000000000000000000, 0.0000000000000000000, 1.000000000000000000 ) ) ;
#169 = AXIS2_PLACEMENT_3D ( 'NONE', #60, #123, #156 ) ;
#170 = DIRECTION ( 'NONE',  ( -3.491481338843133355E-15, 1.224646799147353207E-16, -1.000000000000000000 ) ) ;
#171 = CARTESIAN_POINT ( 'NONE',  ( 1.396592535537253342E-13, -4.898587196589413026E-15, 40.00000000000000000 ) ) ;
#172 = APPLICATION_CONTEXT ( 'configuration controlled 3d designs of mechanical parts and assemblies' ) ;
#173 = VERTEX_POINT ( 'NONE', #199 ) ;
#174 = PERSON_AND_ORGANIZATION ( #135, #98 ) ;
#175 = LOCAL_TIME ( 10, 13, 7.000000000000000000, #68 ) ;
#176 = DATE_AND_TIME ( #181, #153 ) ;
#177 = CC_DESIGN_DATE_AND_TIME_ASSIGNMENT ( #65, #143, ( #151 ) ) ;
#178 = COORDINATED_UNIVERSAL_TIME_OFFSET ( 1, 0, .AHEAD. ) ;
#179 = UNCERTAINTY_MEASURE_WITH_UNIT (LENGTH_MEASURE( 1.000000000000000082E-05 ), #40, 'distance_accuracy_value', 'NONE');
#180 = AXIS2_PLACEMENT_3D ( 'NONE', #203, #170, #139 ) ;
#181 = CALENDAR_DATE ( 2021, 9, 11 ) ;
#182 = EDGE_LOOP ( 'NONE', ( #7 ) ) ;
#183 = CC_DESIGN_PERSON_AND_ORGANIZATION_ASSIGNMENT ( #100, #159, ( #146 ) ) ;
#184 = AXIS2_PLACEMENT_3D ( 'NONE', #8, #187, #152 ) ;
#185 = EDGE_LOOP ( 'NONE', ( #89 ) ) ;
#186 = CC_DESIGN_PERSON_AND_ORGANIZATION_ASSIGNMENT ( #24, #126, ( #136 ) ) ;
#187 = DIRECTION ( 'NONE',  ( -3.491481338843133355E-15, 1.224646799147353207E-16, -1.000000000000000000 ) ) ;
#188 = DIRECTION ( 'NONE',  ( -3.491481338843133355E-15, 1.224646799147353207E-16, -1.000000000000000000 ) ) ;
#189 = CARTESIAN_POINT ( 'NONE',  ( 1.396592535537253342E-13, 4.999999999999994671, 40.00000000000000000 ) ) ;
#190 = DIRECTION ( 'NONE',  ( -3.491481338843133355E-15, 1.224646799147353207E-16, -1.000000000000000000 ) ) ;
#191 = PERSON_AND_ORGANIZATION_ROLE ( 'creator' ) ;
#192 = APPLICATION_PROTOCOL_DEFINITION ( 'international standard', 'config_control_design', 1994, #172 ) ;
#193 = PERSON_AND_ORGANIZATION ( #135, #98 ) ;
#194 = DIRECTION ( 'NONE',  ( -4.275831445896958607E-31, -1.000000000000000000, -1.224646799147353207E-16 ) ) ;
#195 = EDGE_LOOP ( 'NONE', ( #73 ) ) ;
#196 =( NAMED_UNIT ( * ) SI_UNIT ( $, .STERADIAN. ) SOLID_ANGLE_UNIT ( ) );
#197 = ORIENTED_EDGE ( 'NONE', *, *, #118, .T. ) ;
#198 = AXIS2_PLACEMENT_3D ( 'NONE', #9, #168, #27 ) ;
#199 = CARTESIAN_POINT ( 'NONE',  ( 3.491481338843133355E-13, 4.499999999999990230, 100.0000000000000000 ) ) ;
#200 = CC_DESIGN_DATE_AND_TIME_ASSIGNMENT ( #125, #49, ( #109 ) ) ;
#201 = DIRECTION ( 'NONE',  ( -3.491481338843133355E-15, 1.224646799147353207E-16, -1.000000000000000000 ) ) ;
#202 = FACE_OUTER_BOUND ( 'NONE', #195, .T. ) ;
#203 = CARTESIAN_POINT ( 'NONE',  ( 3.491481338843133355E-13, 3.374459510989163196E-32, 100.0000000000000000 ) ) ;
ENDSEC;
END-ISO-10303-21;
