ISO-10303-21;
HEADER;
FILE_DESCRIPTION (( 'STEP AP203' ),
    '1' );
FILE_NAME ('60235.step',
    '2021-11-09T09:13:07',
    ( '' ),
    ( '' ),
    'SwSTEP 2.0',
    'SolidWorks 2019',
    '' );
FILE_SCHEMA (( 'CONFIG_CONTROL_DESIGN' ));
ENDSEC;

DATA;
#1 = CLOSED_SHELL ( 'NONE', ( #100, #34, #86 ) ) ;
#2 = ORIENTED_EDGE ( 'NONE', *, *, #21, .F. ) ;
#3 = CARTESIAN_POINT ( 'NONE',  ( 1.396592535537253342E-13, 3.999999999999995559, 40.00000000000000000 ) ) ;
#4 = FACE_OUTER_BOUND ( 'NONE', #81, .T. ) ;
#5 = AXIS2_PLACEMENT_3D ( 'NONE', #192, #101, #73 ) ;
#6 = CC_DESIGN_SECURITY_CLASSIFICATION ( #182, ( #31 ) ) ;
#7 =( NAMED_UNIT ( * ) SI_UNIT ( $, .STERADIAN. ) SOLID_ANGLE_UNIT ( ) );
#8 = MANIFOLD_SOLID_BREP ( 'Corps-Déplacer/Copier1[1]', #115 ) ;
#9 = DIRECTION ( 'NONE',  ( -3.491481338843133355E-15, 1.224646799147353207E-16, -1.000000000000000000 ) ) ;
#10 = ADVANCED_BREP_SHAPE_REPRESENTATION ( '60235', ( #8, #152, #174 ), #130 ) ;
#11 = CIRCLE ( 'NONE', #23, 4.000000000000000888 ) ;
#12 = COORDINATED_UNIVERSAL_TIME_OFFSET ( 1, 0, .AHEAD. ) ;
#13 = DATE_AND_TIME ( #59, #97 ) ;
#14 = PERSON_AND_ORGANIZATION ( #172, #50 ) ;
#15 = AXIS2_PLACEMENT_3D ( 'NONE', #176, #117, #132 ) ;
#16 = CC_DESIGN_PERSON_AND_ORGANIZATION_ASSIGNMENT ( #93, #78, ( #31 ) ) ;
#17 = AXIS2_PLACEMENT_3D ( 'NONE', #164, #159, #53 ) ;
#18 = DIRECTION ( 'NONE',  ( -3.491481338843133355E-15, 1.224646799147353207E-16, -1.000000000000000000 ) ) ;
#19 = CYLINDRICAL_SURFACE ( 'NONE', #5, 3.999999999999994671 ) ;
#20 = FACE_OUTER_BOUND ( 'NONE', #187, .T. ) ;
#21 = EDGE_CURVE ( 'NONE', #85, #85, #11, .T. ) ;
#22 = CARTESIAN_POINT ( 'NONE',  ( 3.474023932148917752E-13, 3.999999999999976019, 99.50000000000000000 ) ) ;
#23 = AXIS2_PLACEMENT_3D ( 'NONE', #183, #66, #49 ) ;
#24 = APPROVAL_PERSON_ORGANIZATION ( #106, #94, #186 ) ;
#25 = FACE_OUTER_BOUND ( 'NONE', #65, .T. ) ;
#26 = PRODUCT ( '60235', '60235', '', ( #184 ) ) ;
#27 = DESIGN_CONTEXT ( 'detailed design', #33, 'design' ) ;
#28 = DATE_AND_TIME ( #105, #148 ) ;
#29 = CC_DESIGN_PERSON_AND_ORGANIZATION_ASSIGNMENT ( #156, #196, ( #182 ) ) ;
#30 = SHAPE_DEFINITION_REPRESENTATION ( #114, #10 ) ;
#31 = PRODUCT_DEFINITION_FORMATION_WITH_SPECIFIED_SOURCE ( 'ANY', '', #26, .NOT_KNOWN. ) ;
#32 = PERSON_AND_ORGANIZATION_ROLE ( 'design_owner' ) ;
#33 = APPLICATION_CONTEXT ( 'configuration controlled 3d designs of mechanical parts and assemblies' ) ;
#34 = ADVANCED_FACE ( 'NONE', ( #175, #38 ), #98, .T. ) ;
#35 = ORIENTED_EDGE ( 'NONE', *, *, #60, .F. ) ;
#36 = APPROVAL_PERSON_ORGANIZATION ( #14, #155, #76 ) ;
#37 = ADVANCED_FACE ( 'NONE', ( #58 ), #52, .F. ) ;
#38 = FACE_OUTER_BOUND ( 'NONE', #121, .T. ) ;
#39 = EDGE_LOOP ( 'NONE', ( #82 ) ) ;
#40 = CARTESIAN_POINT ( 'NONE',  ( 3.491481338843133355E-13, 3.499999999999989342, 100.0000000000000000 ) ) ;
#41 = FACE_OUTER_BOUND ( 'NONE', #185, .T. ) ;
#42 = CC_DESIGN_PERSON_AND_ORGANIZATION_ASSIGNMENT ( #153, #171, ( #127 ) ) ;
#43 = DIRECTION ( 'NONE',  ( 0.0000000000000000000, 1.000000000000000000, 0.0000000000000000000 ) ) ;
#44 = VERTEX_POINT ( 'NONE', #102 ) ;
#45 = DIRECTION ( 'NONE',  ( 3.491481338843133355E-15, -1.224646799147353207E-16, 1.000000000000000000 ) ) ;
#46 = APPLICATION_PROTOCOL_DEFINITION ( 'international standard', 'config_control_design', 1994, #197 ) ;
#47 = PERSON_AND_ORGANIZATION ( #172, #50 ) ;
#48 = DATE_AND_TIME ( #167, #140 ) ;
#49 = DIRECTION ( 'NONE',  ( 0.0000000000000000000, 1.000000000000000000, 0.0000000000000000000 ) ) ;
#50 = ORGANIZATION ( 'UNSPECIFIED', 'UNSPECIFIED', '' ) ;
#51 = DIRECTION ( 'NONE',  ( 4.275831445896958607E-31, 1.000000000000000000, 1.224646799147353207E-16 ) ) ;
#52 = PLANE ( 'NONE',  #17 ) ;
#53 = DIRECTION ( 'NONE',  ( -4.275831445896958607E-31, -1.000000000000000000, -1.224646799147353207E-16 ) ) ;
#54 = EDGE_CURVE ( 'NONE', #145, #145, #107, .T. ) ;
#55 = DIRECTION ( 'NONE',  ( -3.491481338843133355E-15, 1.224646799147353207E-16, -1.000000000000000000 ) ) ;
#56 = FACE_BOUND ( 'NONE', #99, .T. ) ;
#57 = CC_DESIGN_DATE_AND_TIME_ASSIGNMENT ( #79, #200, ( #127 ) ) ;
#58 = FACE_OUTER_BOUND ( 'NONE', #110, .T. ) ;
#59 = CALENDAR_DATE ( 2021, 9, 11 ) ;
#60 = EDGE_CURVE ( 'NONE', #75, #75, #122, .T. ) ;
#61 = DATE_AND_TIME ( #166, #157 ) ;
#62 = CC_DESIGN_PERSON_AND_ORGANIZATION_ASSIGNMENT ( #181, #90, ( #31 ) ) ;
#63 = EDGE_LOOP ( 'NONE', ( #2 ) ) ;
#64 = DIRECTION ( 'NONE',  ( 0.0000000000000000000, 0.0000000000000000000, 1.000000000000000000 ) ) ;
#65 = EDGE_LOOP ( 'NONE', ( #142 ) ) ;
#66 = DIRECTION ( 'NONE',  ( -3.491481338843133355E-15, 1.224646799147353207E-16, -1.000000000000000000 ) ) ;
#67 = DIRECTION ( 'NONE',  ( -3.491481338843133355E-15, 1.224646799147353207E-16, -1.000000000000000000 ) ) ;
#68 = VERTEX_POINT ( 'NONE', #22 ) ;
#69 = APPROVAL ( #198, 'UNSPECIFIED' ) ;
#70 =( NAMED_UNIT ( * ) PLANE_ANGLE_UNIT ( ) SI_UNIT ( $, .RADIAN. ) );
#71 = LOCAL_TIME ( 10, 13, 7.000000000000000000, #12 ) ;
#72 = DIRECTION ( 'NONE',  ( 4.275831445896958607E-31, 1.000000000000000000, 1.224646799147353207E-16 ) ) ;
#73 = DIRECTION ( 'NONE',  ( 4.275831445896959482E-31, 1.000000000000000000, 1.224646799147353454E-16 ) ) ;
#74 = EDGE_CURVE ( 'NONE', #68, #68, #201, .T. ) ;
#75 = VERTEX_POINT ( 'NONE', #133 ) ;
#76 = APPROVAL_ROLE ( '' ) ;
#77 = AXIS2_PLACEMENT_3D ( 'NONE', #111, #128, #43 ) ;
#78 = PERSON_AND_ORGANIZATION_ROLE ( 'design_supplier' ) ;
#79 = DATE_AND_TIME ( #95, #71 ) ;
#80 = CIRCLE ( 'NONE', #188, 4.000000000000000888 ) ;
#81 = EDGE_LOOP ( 'NONE', ( #84 ) ) ;
#82 = ORIENTED_EDGE ( 'NONE', *, *, #199, .T. ) ;
#83 = ADVANCED_FACE ( 'NONE', ( #41, #191 ), #19, .T. ) ;
#84 = ORIENTED_EDGE ( 'NONE', *, *, #54, .F. ) ;
#85 = VERTEX_POINT ( 'NONE', #3 ) ;
#86 = ADVANCED_FACE ( 'NONE', ( #25 ), #178, .T. ) ;
#87 = DIRECTION ( 'NONE',  ( -4.275831445896958607E-31, -1.000000000000000000, -1.224646799147353207E-16 ) ) ;
#88 = UNCERTAINTY_MEASURE_WITH_UNIT (LENGTH_MEASURE( 1.000000000000000082E-05 ), #195, 'distance_accuracy_value', 'NONE');
#89 = CARTESIAN_POINT ( 'NONE',  ( 3.474023932148917752E-13, -1.218523565151616460E-14, 99.50000000000000000 ) ) ;
#90 = PERSON_AND_ORGANIZATION_ROLE ( 'creator' ) ;
#91 = COORDINATED_UNIVERSAL_TIME_OFFSET ( 1, 0, .AHEAD. ) ;
#92 = ADVANCED_FACE ( 'NONE', ( #56, #20 ), #120, .T. ) ;
#93 = PERSON_AND_ORGANIZATION ( #172, #50 ) ;
#94 = APPROVAL ( #202, 'UNSPECIFIED' ) ;
#95 = CALENDAR_DATE ( 2021, 9, 11 ) ;
#96 = AXIS2_PLACEMENT_3D ( 'NONE', #160, #193, #72 ) ;
#97 = LOCAL_TIME ( 10, 13, 7.000000000000000000, #134 ) ;
#98 = CYLINDRICAL_SURFACE ( 'NONE', #137, 4.000000000000000000 ) ;
#99 = EDGE_LOOP ( 'NONE', ( #189 ) ) ;
#100 = ADVANCED_FACE ( 'NONE', ( #147 ), #146, .T. ) ;
#101 = DIRECTION ( 'NONE',  ( -3.491481338843133355E-15, 1.224646799147353207E-16, -1.000000000000000000 ) ) ;
#102 = CARTESIAN_POINT ( 'NONE',  ( 1.396592535537253342E-13, 3.999999999999995559, 40.00000000000000000 ) ) ;
#103 = CC_DESIGN_APPROVAL ( #69, ( #31 ) ) ;
#104 = COORDINATED_UNIVERSAL_TIME_OFFSET ( 1, 0, .AHEAD. ) ;
#105 = CALENDAR_DATE ( 2021, 9, 11 ) ;
#106 = PERSON_AND_ORGANIZATION ( #172, #50 ) ;
#107 = CIRCLE ( 'NONE', #77, 3.500000000000001332 ) ;
#108 = CARTESIAN_POINT ( 'NONE',  ( 0.0000000000000000000, 0.0000000000000000000, 0.0000000000000000000 ) ) ;
#109 = COORDINATED_UNIVERSAL_TIME_OFFSET ( 1, 0, .AHEAD. ) ;
#110 = EDGE_LOOP ( 'NONE', ( #203 ) ) ;
#111 = CARTESIAN_POINT ( 'NONE',  ( 3.491481338843133355E-13, -1.224646799147353217E-14, 100.0000000000000000 ) ) ;
#112 = DIRECTION ( 'NONE',  ( 0.0000000000000000000, 1.000000000000000000, 0.0000000000000000000 ) ) ;
#113 = CARTESIAN_POINT ( 'NONE',  ( 3.474023932148917752E-13, -1.218523565151616460E-14, 99.50000000000000000 ) ) ;
#114 = PRODUCT_DEFINITION_SHAPE ( 'NONE', 'NONE',  #127 ) ;
#115 = CLOSED_SHELL ( 'NONE', ( #37, #83, #92, #138 ) ) ;
#116 = APPROVAL_PERSON_ORGANIZATION ( #141, #69, #124 ) ;
#117 = DIRECTION ( 'NONE',  ( -3.491481338843133355E-15, 1.224646799147353207E-16, -1.000000000000000000 ) ) ;
#118 = APPROVAL_DATE_TIME ( #13, #155 ) ;
#119 = PRODUCT_RELATED_PRODUCT_CATEGORY ( 'detail', '', ( #26 ) ) ;
#120 = CONICAL_SURFACE ( 'NONE', #173, 3.999999999999988010, 0.7853981633974344012 ) ;
#121 = EDGE_LOOP ( 'NONE', ( #35 ) ) ;
#122 = CIRCLE ( 'NONE', #15, 4.000000000000000000 ) ;
#123 = CC_DESIGN_APPROVAL ( #94, ( #127 ) ) ;
#124 = APPROVAL_ROLE ( '' ) ;
#125 = ORIENTED_EDGE ( 'NONE', *, *, #74, .T. ) ;
#126 = APPLICATION_PROTOCOL_DEFINITION ( 'international standard', 'config_control_design', 1994, #33 ) ;
#127 = PRODUCT_DEFINITION ( 'UNKNOWN', '', #31, #27 ) ;
#128 = DIRECTION ( 'NONE',  ( -3.491481338843133355E-15, 1.224646799147353207E-16, -1.000000000000000000 ) ) ;
#129 = DIRECTION ( 'NONE',  ( -3.491481338843133355E-15, 1.224646799147353207E-16, -1.000000000000000000 ) ) ;
#130 =( GEOMETRIC_REPRESENTATION_CONTEXT ( 3 ) GLOBAL_UNCERTAINTY_ASSIGNED_CONTEXT ( ( #88 ) ) GLOBAL_UNIT_ASSIGNED_CONTEXT ( ( #195, #70, #7 ) ) REPRESENTATION_CONTEXT ( 'NONE', 'WORKASPACE' ) );
#131 = DIRECTION ( 'NONE',  ( 4.275831445896958607E-31, 1.000000000000000000, 1.224646799147353207E-16 ) ) ;
#132 = DIRECTION ( 'NONE',  ( 4.275831445896958607E-31, 1.000000000000000000, 1.224646799147353207E-16 ) ) ;
#133 = CARTESIAN_POINT ( 'NONE',  ( 3.421138828918010427E-46, 4.000000000000000000, 0.0000000000000000000 ) ) ;
#134 = COORDINATED_UNIVERSAL_TIME_OFFSET ( 1, 0, .AHEAD. ) ;
#135 = DIRECTION ( 'NONE',  ( 1.000000000000000000, 0.0000000000000000000, 0.0000000000000000000 ) ) ;
#136 = DATE_TIME_ROLE ( 'classification_date' ) ;
#137 = AXIS2_PLACEMENT_3D ( 'NONE', #158, #67, #51 ) ;
#138 = ADVANCED_FACE ( 'NONE', ( #4 ), #179, .F. ) ;
#139 = EDGE_LOOP ( 'NONE', ( #143 ) ) ;
#140 = LOCAL_TIME ( 10, 13, 7.000000000000000000, #91 ) ;
#141 = PERSON_AND_ORGANIZATION ( #172, #50 ) ;
#142 = ORIENTED_EDGE ( 'NONE', *, *, #199, .F. ) ;
#143 = ORIENTED_EDGE ( 'NONE', *, *, #60, .T. ) ;
#144 = ORIENTED_EDGE ( 'NONE', *, *, #74, .F. ) ;
#145 = VERTEX_POINT ( 'NONE', #40 ) ;
#146 = PLANE ( 'NONE',  #96 ) ;
#147 = FACE_OUTER_BOUND ( 'NONE', #139, .T. ) ;
#148 = LOCAL_TIME ( 10, 13, 7.000000000000000000, #109 ) ;
#149 = CARTESIAN_POINT ( 'NONE',  ( 3.491481338843133355E-13, 2.624579619658233297E-32, 100.0000000000000000 ) ) ;
#150 = APPROVAL_STATUS ( 'not_yet_approved' ) ;
#151 = SECURITY_CLASSIFICATION_LEVEL ( 'unclassified' ) ;
#152 = MANIFOLD_SOLID_BREP ( 'Corps-Déplacer/Copier1[2]', #1 ) ;
#153 = PERSON_AND_ORGANIZATION ( #172, #50 ) ;
#154 = AXIS2_PLACEMENT_3D ( 'NONE', #161, #45, #87 ) ;
#155 = APPROVAL ( #150, 'UNSPECIFIED' ) ;
#156 = PERSON_AND_ORGANIZATION ( #172, #50 ) ;
#157 = LOCAL_TIME ( 10, 13, 7.000000000000000000, #104 ) ;
#158 = CARTESIAN_POINT ( 'NONE',  ( 0.0000000000000000000, 0.0000000000000000000, 0.0000000000000000000 ) ) ;
#159 = DIRECTION ( 'NONE',  ( 3.491481338843133355E-15, -1.224646799147353207E-16, 1.000000000000000000 ) ) ;
#160 = CARTESIAN_POINT ( 'NONE',  ( -8.551662891793915461E-31, 2.999519565323715216E-32, -2.449293598294706414E-16 ) ) ;
#161 = CARTESIAN_POINT ( 'NONE',  ( 1.396592535537253342E-13, 2.999519565323708647E-32, 40.00000000000000000 ) ) ;
#162 = AXIS2_PLACEMENT_3D ( 'NONE', #149, #9, #131 ) ;
#163 = CC_DESIGN_APPROVAL ( #155, ( #182 ) ) ;
#164 = CARTESIAN_POINT ( 'NONE',  ( 1.396592535537253342E-13, 2.999519565323708647E-32, 40.00000000000000000 ) ) ;
#165 = CC_DESIGN_PERSON_AND_ORGANIZATION_ASSIGNMENT ( #47, #32, ( #26 ) ) ;
#166 = CALENDAR_DATE ( 2021, 9, 11 ) ;
#167 = CALENDAR_DATE ( 2021, 9, 11 ) ;
#168 = APPROVAL_DATE_TIME ( #28, #69 ) ;
#169 = APPROVAL_DATE_TIME ( #61, #94 ) ;
#170 = AXIS2_PLACEMENT_3D ( 'NONE', #113, #129, #180 ) ;
#171 = PERSON_AND_ORGANIZATION_ROLE ( 'creator' ) ;
#172 = PERSON ( 'UNSPECIFIED', 'UNSPECIFIED', 'UNSPECIFIED', ('UNSPECIFIED'), ('UNSPECIFIED'), ('UNSPECIFIED') ) ;
#173 = AXIS2_PLACEMENT_3D ( 'NONE', #89, #18, #112 ) ;
#174 = AXIS2_PLACEMENT_3D ( 'NONE', #108, #64, #135 ) ;
#175 = FACE_OUTER_BOUND ( 'NONE', #39, .T. ) ;
#176 = CARTESIAN_POINT ( 'NONE',  ( -1.710332578358783092E-30, 5.999039130647430431E-32, -4.898587196589412829E-16 ) ) ;
#177 = CARTESIAN_POINT ( 'NONE',  ( 1.396592535537253342E-13, -4.898587196589413026E-15, 40.00000000000000000 ) ) ;
#178 = PLANE ( 'NONE',  #154 ) ;
#179 = PLANE ( 'NONE',  #162 ) ;
#180 = DIRECTION ( 'NONE',  ( 0.0000000000000000000, 1.000000000000000000, 0.0000000000000000000 ) ) ;
#181 = PERSON_AND_ORGANIZATION ( #172, #50 ) ;
#182 = SECURITY_CLASSIFICATION ( '', '', #151 ) ;
#183 = CARTESIAN_POINT ( 'NONE',  ( 1.396592535537253342E-13, -4.898587196589413026E-15, 40.00000000000000000 ) ) ;
#184 = MECHANICAL_CONTEXT ( 'NONE', #197, 'mechanical' ) ;
#185 = EDGE_LOOP ( 'NONE', ( #125 ) ) ;
#186 = APPROVAL_ROLE ( '' ) ;
#187 = EDGE_LOOP ( 'NONE', ( #144 ) ) ;
#188 = AXIS2_PLACEMENT_3D ( 'NONE', #177, #55, #194 ) ;
#189 = ORIENTED_EDGE ( 'NONE', *, *, #54, .T. ) ;
#190 = CC_DESIGN_DATE_AND_TIME_ASSIGNMENT ( #48, #136, ( #182 ) ) ;
#191 = FACE_OUTER_BOUND ( 'NONE', #63, .T. ) ;
#192 = CARTESIAN_POINT ( 'NONE',  ( 0.0000000000000000000, 0.0000000000000000000, 0.0000000000000000000 ) ) ;
#193 = DIRECTION ( 'NONE',  ( -3.491481338843133355E-15, 1.224646799147353207E-16, -1.000000000000000000 ) ) ;
#194 = DIRECTION ( 'NONE',  ( 0.0000000000000000000, 1.000000000000000000, 0.0000000000000000000 ) ) ;
#195 =( LENGTH_UNIT ( ) NAMED_UNIT ( * ) SI_UNIT ( .MILLI., .METRE. ) );
#196 = PERSON_AND_ORGANIZATION_ROLE ( 'classification_officer' ) ;
#197 = APPLICATION_CONTEXT ( 'configuration controlled 3d designs of mechanical parts and assemblies' ) ;
#198 = APPROVAL_STATUS ( 'not_yet_approved' ) ;
#199 = EDGE_CURVE ( 'NONE', #44, #44, #80, .T. ) ;
#200 = DATE_TIME_ROLE ( 'creation_date' ) ;
#201 = CIRCLE ( 'NONE', #170, 3.999999999999988010 ) ;
#202 = APPROVAL_STATUS ( 'not_yet_approved' ) ;
#203 = ORIENTED_EDGE ( 'NONE', *, *, #21, .T. ) ;
ENDSEC;
END-ISO-10303-21;
