ISO-10303-21;
HEADER;
FILE_DESCRIPTION (( 'STEP AP203' ),
    '1' );
FILE_NAME ('60234.step',
    '2021-11-09T09:13:06',
    ( '' ),
    ( '' ),
    'SwSTEP 2.0',
    'SolidWorks 2019',
    '' );
FILE_SCHEMA (( 'CONFIG_CONTROL_DESIGN' ));
ENDSEC;

DATA;
#1 = PERSON_AND_ORGANIZATION ( #165, #44 ) ;
#2 = PERSON_AND_ORGANIZATION_ROLE ( 'design_supplier' ) ;
#3 = CARTESIAN_POINT ( 'NONE',  ( 0.0000000000000000000, 0.0000000000000000000, 0.0000000000000000000 ) ) ;
#4 = SECURITY_CLASSIFICATION ( '', '', #67 ) ;
#5 = ORIENTED_EDGE ( 'NONE', *, *, #37, .T. ) ;
#6 = DIRECTION ( 'NONE',  ( 4.275831445896959482E-31, 1.000000000000000000, 1.224646799147353207E-16 ) ) ;
#7 = AXIS2_PLACEMENT_3D ( 'NONE', #3, #167, #151 ) ;
#8 = CLOSED_SHELL ( 'NONE', ( #176, #77, #83, #57 ) ) ;
#9 = EDGE_LOOP ( 'NONE', ( #5 ) ) ;
#10 = LOCAL_TIME ( 10, 13, 6.000000000000000000, #84 ) ;
#11 = CARTESIAN_POINT ( 'NONE',  ( 3.474023932148917752E-13, -1.218523565151616460E-14, 99.50000000000000000 ) ) ;
#12 = CARTESIAN_POINT ( 'NONE',  ( 1.396592535537253342E-13, 2.249639673992779569E-32, 40.00000000000000000 ) ) ;
#13 = DIRECTION ( 'NONE',  ( 4.275831445896958607E-31, 1.000000000000000000, 1.224646799147353207E-16 ) ) ;
#14 = FACE_OUTER_BOUND ( 'NONE', #154, .T. ) ;
#15 = CALENDAR_DATE ( 2021, 9, 11 ) ;
#16 = APPROVAL ( #91, 'UNSPECIFIED' ) ;
#17 =( NAMED_UNIT ( * ) SI_UNIT ( $, .STERADIAN. ) SOLID_ANGLE_UNIT ( ) );
#18 = PERSON_AND_ORGANIZATION ( #165, #44 ) ;
#19 = CLOSED_SHELL ( 'NONE', ( #112, #34, #68 ) ) ;
#20 = PERSON_AND_ORGANIZATION ( #165, #44 ) ;
#21 = APPROVAL_PERSON_ORGANIZATION ( #155, #16, #42 ) ;
#22 = ORIENTED_EDGE ( 'NONE', *, *, #37, .F. ) ;
#23 = APPROVAL_DATE_TIME ( #104, #16 ) ;
#24 = FACE_OUTER_BOUND ( 'NONE', #41, .T. ) ;
#25 = AXIS2_PLACEMENT_3D ( 'NONE', #175, #59, #161 ) ;
#26 = CC_DESIGN_PERSON_AND_ORGANIZATION_ASSIGNMENT ( #20, #73, ( #4 ) ) ;
#27 = DIRECTION ( 'NONE',  ( 4.275831445896959482E-31, 1.000000000000000000, 1.224646799147353207E-16 ) ) ;
#28 = AXIS2_PLACEMENT_3D ( 'NONE', #11, #78, #109 ) ;
#29 = CC_DESIGN_APPROVAL ( #201, ( #30 ) ) ;
#30 = PRODUCT_DEFINITION ( 'UNKNOWN', '', #48, #170 ) ;
#31 = DIRECTION ( 'NONE',  ( 4.275831445896959482E-31, 1.000000000000000000, 1.224646799147353207E-16 ) ) ;
#32 = MANIFOLD_SOLID_BREP ( 'Corps-Déplacer/Copier1[1]', #8 ) ;
#33 = DIRECTION ( 'NONE',  ( -4.275831445896958607E-31, -1.000000000000000000, -1.224646799147353207E-16 ) ) ;
#34 = ADVANCED_FACE ( 'NONE', ( #24, #92 ), #156, .T. ) ;
#35 = DIRECTION ( 'NONE',  ( 4.275831445896958607E-31, 1.000000000000000000, 1.224646799147353207E-16 ) ) ;
#36 = APPROVAL_DATE_TIME ( #114, #157 ) ;
#37 = EDGE_CURVE ( 'NONE', #146, #146, #196, .T. ) ;
#38 = CARTESIAN_POINT ( 'NONE',  ( 3.474023932148917752E-13, 2.999999999999988898, 99.50000000000000000 ) ) ;
#39 = APPROVAL_STATUS ( 'not_yet_approved' ) ;
#40 = PERSON_AND_ORGANIZATION_ROLE ( 'creator' ) ;
#41 = EDGE_LOOP ( 'NONE', ( #43 ) ) ;
#42 = APPROVAL_ROLE ( '' ) ;
#43 = ORIENTED_EDGE ( 'NONE', *, *, #126, .T. ) ;
#44 = ORGANIZATION ( 'UNSPECIFIED', 'UNSPECIFIED', '' ) ;
#45 = AXIS2_PLACEMENT_3D ( 'NONE', #56, #123, #6 ) ;
#46 = DIRECTION ( 'NONE',  ( -4.275831445896958607E-31, -1.000000000000000000, -1.224646799147353207E-16 ) ) ;
#47 = CARTESIAN_POINT ( 'NONE',  ( 1.396592535537253342E-13, 2.249639673992779569E-32, 40.00000000000000000 ) ) ;
#48 = PRODUCT_DEFINITION_FORMATION_WITH_SPECIFIED_SOURCE ( 'ANY', '', #153, .NOT_KNOWN. ) ;
#49 = CALENDAR_DATE ( 2021, 9, 11 ) ;
#50 = PRODUCT_DEFINITION_SHAPE ( 'NONE', 'NONE',  #30 ) ;
#51 = APPROVAL_DATE_TIME ( #70, #201 ) ;
#52 = CALENDAR_DATE ( 2021, 9, 11 ) ;
#53 = CC_DESIGN_PERSON_AND_ORGANIZATION_ASSIGNMENT ( #179, #40, ( #30 ) ) ;
#54 = APPLICATION_CONTEXT ( 'configuration controlled 3d designs of mechanical parts and assemblies' ) ;
#55 = DIRECTION ( 'NONE',  ( -3.491481338843133355E-15, 1.224646799147353207E-16, -1.000000000000000000 ) ) ;
#56 = CARTESIAN_POINT ( 'NONE',  ( 0.0000000000000000000, 0.0000000000000000000, 0.0000000000000000000 ) ) ;
#57 = ADVANCED_FACE ( 'NONE', ( #58 ), #200, .F. ) ;
#58 = FACE_OUTER_BOUND ( 'NONE', #106, .T. ) ;
#59 = DIRECTION ( 'NONE',  ( -3.491481338843133355E-15, 1.224646799147353207E-16, -1.000000000000000000 ) ) ;
#60 = DIRECTION ( 'NONE',  ( 3.491481338843133355E-15, -1.224646799147353207E-16, 1.000000000000000000 ) ) ;
#61 = DIRECTION ( 'NONE',  ( -3.491481338843133355E-15, 1.224646799147353207E-16, -1.000000000000000000 ) ) ;
#62 = APPLICATION_PROTOCOL_DEFINITION ( 'international standard', 'config_control_design', 1994, #54 ) ;
#63 = CONICAL_SURFACE ( 'NONE', #28, 3.000000000000000888, 0.7853981633974482790 ) ;
#64 = AXIS2_PLACEMENT_3D ( 'NONE', #47, #173, #33 ) ;
#65 = PERSON_AND_ORGANIZATION ( #165, #44 ) ;
#66 = APPLICATION_CONTEXT ( 'configuration controlled 3d designs of mechanical parts and assemblies' ) ;
#67 = SECURITY_CLASSIFICATION_LEVEL ( 'unclassified' ) ;
#68 = ADVANCED_FACE ( 'NONE', ( #124 ), #93, .T. ) ;
#69 = CIRCLE ( 'NONE', #159, 3.000000000000000000 ) ;
#70 = DATE_AND_TIME ( #195, #135 ) ;
#71 = COORDINATED_UNIVERSAL_TIME_OFFSET ( 1, 0, .AHEAD. ) ;
#72 = ORIENTED_EDGE ( 'NONE', *, *, #121, .T. ) ;
#73 = PERSON_AND_ORGANIZATION_ROLE ( 'classification_officer' ) ;
#74 = EDGE_LOOP ( 'NONE', ( #140 ) ) ;
#75 = FACE_OUTER_BOUND ( 'NONE', #158, .T. ) ;
#76 = DIRECTION ( 'NONE',  ( 0.0000000000000000000, 1.000000000000000000, 0.0000000000000000000 ) ) ;
#77 = ADVANCED_FACE ( 'NONE', ( #95, #160 ), #129, .T. ) ;
#78 = DIRECTION ( 'NONE',  ( -3.491481338843133355E-15, 1.224646799147353207E-16, -1.000000000000000000 ) ) ;
#79 = LOCAL_TIME ( 10, 13, 6.000000000000000000, #71 ) ;
#80 = CARTESIAN_POINT ( 'NONE',  ( 3.491481338843133355E-13, -1.224646799147353217E-14, 100.0000000000000000 ) ) ;
#81 = MANIFOLD_SOLID_BREP ( 'Corps-Déplacer/Copier1[2]', #19 ) ;
#82 = DATE_AND_TIME ( #15, #191 ) ;
#83 = ADVANCED_FACE ( 'NONE', ( #162, #14 ), #63, .T. ) ;
#84 = COORDINATED_UNIVERSAL_TIME_OFFSET ( 1, 0, .AHEAD. ) ;
#85 = VERTEX_POINT ( 'NONE', #134 ) ;
#86 = PERSON_AND_ORGANIZATION_ROLE ( 'design_owner' ) ;
#87 = LOCAL_TIME ( 10, 13, 6.000000000000000000, #88 ) ;
#88 = COORDINATED_UNIVERSAL_TIME_OFFSET ( 1, 0, .AHEAD. ) ;
#89 = ADVANCED_BREP_SHAPE_REPRESENTATION ( '60234', ( #32, #81, #7 ), #96 ) ;
#90 = ORIENTED_EDGE ( 'NONE', *, *, #121, .F. ) ;
#91 = APPROVAL_STATUS ( 'not_yet_approved' ) ;
#92 = FACE_OUTER_BOUND ( 'NONE', #181, .T. ) ;
#93 = PLANE ( 'NONE',  #64 ) ;
#94 = APPROVAL_PERSON_ORGANIZATION ( #1, #157, #193 ) ;
#95 = FACE_OUTER_BOUND ( 'NONE', #198, .T. ) ;
#96 =( GEOMETRIC_REPRESENTATION_CONTEXT ( 3 ) GLOBAL_UNCERTAINTY_ASSIGNED_CONTEXT ( ( #105 ) ) GLOBAL_UNIT_ASSIGNED_CONTEXT ( ( #149, #113, #17 ) ) REPRESENTATION_CONTEXT ( 'NONE', 'WORKASPACE' ) );
#97 = PLANE ( 'NONE',  #116 ) ;
#98 = VERTEX_POINT ( 'NONE', #38 ) ;
#99 = PERSON_AND_ORGANIZATION ( #165, #44 ) ;
#100 = CARTESIAN_POINT ( 'NONE',  ( 1.396592535537253342E-13, 2.999999999999995115, 40.00000000000000000 ) ) ;
#101 = COORDINATED_UNIVERSAL_TIME_OFFSET ( 1, 0, .AHEAD. ) ;
#102 = COORDINATED_UNIVERSAL_TIME_OFFSET ( 1, 0, .AHEAD. ) ;
#103 = EDGE_LOOP ( 'NONE', ( #139 ) ) ;
#104 = DATE_AND_TIME ( #120, #87 ) ;
#105 = UNCERTAINTY_MEASURE_WITH_UNIT (LENGTH_MEASURE( 1.000000000000000082E-05 ), #149, 'distance_accuracy_value', 'NONE');
#106 = EDGE_LOOP ( 'NONE', ( #182 ) ) ;
#107 = AXIS2_PLACEMENT_3D ( 'NONE', #188, #110, #35 ) ;
#108 = EDGE_CURVE ( 'NONE', #85, #85, #185, .T. ) ;
#109 = DIRECTION ( 'NONE',  ( 0.0000000000000000000, 1.000000000000000000, 0.0000000000000000000 ) ) ;
#110 = DIRECTION ( 'NONE',  ( -3.491481338843133355E-15, 1.224646799147353207E-16, -1.000000000000000000 ) ) ;
#111 = DIRECTION ( 'NONE',  ( 0.0000000000000000000, 1.000000000000000000, 0.0000000000000000000 ) ) ;
#112 = ADVANCED_FACE ( 'NONE', ( #145 ), #97, .T. ) ;
#113 =( NAMED_UNIT ( * ) PLANE_ANGLE_UNIT ( ) SI_UNIT ( $, .RADIAN. ) );
#114 = DATE_AND_TIME ( #49, #10 ) ;
#115 = EDGE_CURVE ( 'NONE', #98, #98, #172, .T. ) ;
#116 = AXIS2_PLACEMENT_3D ( 'NONE', #128, #125, #13 ) ;
#117 = VERTEX_POINT ( 'NONE', #194 ) ;
#118 = EDGE_LOOP ( 'NONE', ( #90 ) ) ;
#119 = CC_DESIGN_PERSON_AND_ORGANIZATION_ASSIGNMENT ( #99, #166, ( #48 ) ) ;
#120 = CALENDAR_DATE ( 2021, 9, 11 ) ;
#121 = EDGE_CURVE ( 'NONE', #152, #152, #69, .T. ) ;
#122 = CC_DESIGN_SECURITY_CLASSIFICATION ( #4, ( #48 ) ) ;
#123 = DIRECTION ( 'NONE',  ( -3.491481338843133355E-15, 1.224646799147353207E-16, -1.000000000000000000 ) ) ;
#124 = FACE_OUTER_BOUND ( 'NONE', #103, .T. ) ;
#125 = DIRECTION ( 'NONE',  ( -3.491481338843133355E-15, 1.224646799147353207E-16, -1.000000000000000000 ) ) ;
#126 = EDGE_CURVE ( 'NONE', #117, #117, #147, .T. ) ;
#127 = AXIS2_PLACEMENT_3D ( 'NONE', #197, #55, #27 ) ;
#128 = CARTESIAN_POINT ( 'NONE',  ( -6.413747168845438786E-31, 2.249639673992786412E-32, -1.836970198721029934E-16 ) ) ;
#129 = CYLINDRICAL_SURFACE ( 'NONE', #180, 3.000000000000000444 ) ;
#130 = PERSON_AND_ORGANIZATION ( #165, #44 ) ;
#131 = CC_DESIGN_APPROVAL ( #157, ( #48 ) ) ;
#132 = APPROVAL_STATUS ( 'not_yet_approved' ) ;
#133 = PRODUCT_RELATED_PRODUCT_CATEGORY ( 'detail', '', ( #153 ) ) ;
#134 = CARTESIAN_POINT ( 'NONE',  ( 3.491481338843133355E-13, 2.499999999999988454, 100.0000000000000000 ) ) ;
#135 = LOCAL_TIME ( 10, 13, 6.000000000000000000, #101 ) ;
#136 = DATE_AND_TIME ( #52, #79 ) ;
#137 = ORIENTED_EDGE ( 'NONE', *, *, #115, .T. ) ;
#138 = SHAPE_DEFINITION_REPRESENTATION ( #50, #89 ) ;
#139 = ORIENTED_EDGE ( 'NONE', *, *, #126, .F. ) ;
#140 = ORIENTED_EDGE ( 'NONE', *, *, #108, .T. ) ;
#141 = ORIENTED_EDGE ( 'NONE', *, *, #115, .F. ) ;
#142 = APPROVAL_PERSON_ORGANIZATION ( #65, #201, #164 ) ;
#143 = PLANE ( 'NONE',  #169 ) ;
#144 = CC_DESIGN_PERSON_AND_ORGANIZATION_ASSIGNMENT ( #130, #86, ( #153 ) ) ;
#145 = FACE_OUTER_BOUND ( 'NONE', #9, .T. ) ;
#146 = VERTEX_POINT ( 'NONE', #190 ) ;
#147 = CIRCLE ( 'NONE', #25, 3.000000000000000000 ) ;
#148 = CARTESIAN_POINT ( 'NONE',  ( 3.474023932148917752E-13, -1.218523565151616460E-14, 99.50000000000000000 ) ) ;
#149 =( LENGTH_UNIT ( ) NAMED_UNIT ( * ) SI_UNIT ( .MILLI., .METRE. ) );
#150 = CC_DESIGN_APPROVAL ( #16, ( #4 ) ) ;
#151 = DIRECTION ( 'NONE',  ( 1.000000000000000000, 0.0000000000000000000, 0.0000000000000000000 ) ) ;
#152 = VERTEX_POINT ( 'NONE', #100 ) ;
#153 = PRODUCT ( '60234', '60234', '', ( #178 ) ) ;
#154 = EDGE_LOOP ( 'NONE', ( #141 ) ) ;
#155 = PERSON_AND_ORGANIZATION ( #165, #44 ) ;
#156 = CYLINDRICAL_SURFACE ( 'NONE', #45, 3.000000000000000000 ) ;
#157 = APPROVAL ( #132, 'UNSPECIFIED' ) ;
#158 = EDGE_LOOP ( 'NONE', ( #72 ) ) ;
#159 = AXIS2_PLACEMENT_3D ( 'NONE', #199, #202, #111 ) ;
#160 = FACE_OUTER_BOUND ( 'NONE', #118, .T. ) ;
#161 = DIRECTION ( 'NONE',  ( 0.0000000000000000000, 1.000000000000000000, 0.0000000000000000000 ) ) ;
#162 = FACE_BOUND ( 'NONE', #74, .T. ) ;
#163 = DIRECTION ( 'NONE',  ( 0.0000000000000000000, 1.000000000000000000, 0.0000000000000000000 ) ) ;
#164 = APPROVAL_ROLE ( '' ) ;
#165 = PERSON ( 'UNSPECIFIED', 'UNSPECIFIED', 'UNSPECIFIED', ('UNSPECIFIED'), ('UNSPECIFIED'), ('UNSPECIFIED') ) ;
#166 = PERSON_AND_ORGANIZATION_ROLE ( 'creator' ) ;
#167 = DIRECTION ( 'NONE',  ( 0.0000000000000000000, 0.0000000000000000000, 1.000000000000000000 ) ) ;
#168 = CC_DESIGN_DATE_AND_TIME_ASSIGNMENT ( #82, #177, ( #30 ) ) ;
#169 = AXIS2_PLACEMENT_3D ( 'NONE', #12, #60, #46 ) ;
#170 = DESIGN_CONTEXT ( 'detailed design', #66, 'design' ) ;
#171 = AXIS2_PLACEMENT_3D ( 'NONE', #80, #203, #76 ) ;
#172 = CIRCLE ( 'NONE', #189, 3.000000000000000888 ) ;
#173 = DIRECTION ( 'NONE',  ( 3.491481338843133355E-15, -1.224646799147353207E-16, 1.000000000000000000 ) ) ;
#174 = CARTESIAN_POINT ( 'NONE',  ( 0.0000000000000000000, 0.0000000000000000000, 0.0000000000000000000 ) ) ;
#175 = CARTESIAN_POINT ( 'NONE',  ( 1.396592535537253342E-13, -4.898587196589413026E-15, 40.00000000000000000 ) ) ;
#176 = ADVANCED_FACE ( 'NONE', ( #75 ), #143, .F. ) ;
#177 = DATE_TIME_ROLE ( 'creation_date' ) ;
#178 = MECHANICAL_CONTEXT ( 'NONE', #54, 'mechanical' ) ;
#179 = PERSON_AND_ORGANIZATION ( #165, #44 ) ;
#180 = AXIS2_PLACEMENT_3D ( 'NONE', #174, #186, #31 ) ;
#181 = EDGE_LOOP ( 'NONE', ( #22 ) ) ;
#182 = ORIENTED_EDGE ( 'NONE', *, *, #108, .F. ) ;
#183 = CC_DESIGN_PERSON_AND_ORGANIZATION_ASSIGNMENT ( #18, #2, ( #48 ) ) ;
#184 = DATE_TIME_ROLE ( 'classification_date' ) ;
#185 = CIRCLE ( 'NONE', #171, 2.500000000000000444 ) ;
#186 = DIRECTION ( 'NONE',  ( -3.491481338843133355E-15, 1.224646799147353207E-16, -1.000000000000000000 ) ) ;
#187 = CC_DESIGN_DATE_AND_TIME_ASSIGNMENT ( #136, #184, ( #4 ) ) ;
#188 = CARTESIAN_POINT ( 'NONE',  ( 3.491481338843133355E-13, 1.874699728327304494E-32, 100.0000000000000000 ) ) ;
#189 = AXIS2_PLACEMENT_3D ( 'NONE', #148, #61, #163 ) ;
#190 = CARTESIAN_POINT ( 'NONE',  ( 0.0000000000000000000, 3.000000000000000000, 0.0000000000000000000 ) ) ;
#191 = LOCAL_TIME ( 10, 13, 6.000000000000000000, #102 ) ;
#192 = APPLICATION_PROTOCOL_DEFINITION ( 'international standard', 'config_control_design', 1994, #66 ) ;
#193 = APPROVAL_ROLE ( '' ) ;
#194 = CARTESIAN_POINT ( 'NONE',  ( 1.396592535537253342E-13, 2.999999999999995115, 40.00000000000000000 ) ) ;
#195 = CALENDAR_DATE ( 2021, 9, 11 ) ;
#196 = CIRCLE ( 'NONE', #127, 3.000000000000000000 ) ;
#197 = CARTESIAN_POINT ( 'NONE',  ( -1.282749433769087757E-30, 4.499279347985572824E-32, -3.673940397442059868E-16 ) ) ;
#198 = EDGE_LOOP ( 'NONE', ( #137 ) ) ;
#199 = CARTESIAN_POINT ( 'NONE',  ( 1.396592535537253342E-13, -4.898587196589413026E-15, 40.00000000000000000 ) ) ;
#200 = PLANE ( 'NONE',  #107 ) ;
#201 = APPROVAL ( #39, 'UNSPECIFIED' ) ;
#202 = DIRECTION ( 'NONE',  ( -3.491481338843133355E-15, 1.224646799147353207E-16, -1.000000000000000000 ) ) ;
#203 = DIRECTION ( 'NONE',  ( -3.491481338843133355E-15, 1.224646799147353207E-16, -1.000000000000000000 ) ) ;
ENDSEC;
END-ISO-10303-21;
