ISO-10303-21;
HEADER;
FILE_DESCRIPTION (( 'STEP AP203' ),
    '1' );
FILE_NAME ('60233.step',
    '2021-11-09T09:13:06',
    ( '' ),
    ( '' ),
    'SwSTEP 2.0',
    'SolidWorks 2019',
    '' );
FILE_SCHEMA (( 'CONFIG_CONTROL_DESIGN' ));
ENDSEC;

DATA;
#1 = LOCAL_TIME ( 10, 13, 6.000000000000000000, #86 ) ;
#2 = DIRECTION ( 'NONE',  ( -3.491481338843133355E-15, 1.224646799147353207E-16, -1.000000000000000000 ) ) ;
#3 = CC_DESIGN_APPROVAL ( #90, ( #151 ) ) ;
#4 = DIRECTION ( 'NONE',  ( 0.0000000000000000000, 1.000000000000000000, 0.0000000000000000000 ) ) ;
#5 = CC_DESIGN_DATE_AND_TIME_ASSIGNMENT ( #104, #46, ( #151 ) ) ;
#6 = CARTESIAN_POINT ( 'NONE',  ( 1.222018468595096801E-13, 2.499999999999995559, 35.00000000000000000 ) ) ;
#7 = LOCAL_TIME ( 10, 13, 6.000000000000000000, #28 ) ;
#8 = APPROVAL_DATE_TIME ( #121, #90 ) ;
#9 = APPROVAL_DATE_TIME ( #25, #105 ) ;
#10 = DIRECTION ( 'NONE',  ( -3.491481338843133355E-15, 1.224646799147353207E-16, -1.000000000000000000 ) ) ;
#11 = EDGE_LOOP ( 'NONE', ( #155 ) ) ;
#12 = AXIS2_PLACEMENT_3D ( 'NONE', #23, #133, #159 ) ;
#13 = PERSON_AND_ORGANIZATION_ROLE ( 'classification_officer' ) ;
#14 = CARTESIAN_POINT ( 'NONE',  ( -1.068957861474239564E-30, 3.749399456654644020E-32, -3.061616997868383141E-16 ) ) ;
#15 = PLANE ( 'NONE',  #137 ) ;
#16 = APPLICATION_CONTEXT ( 'configuration controlled 3d designs of mechanical parts and assemblies' ) ;
#17 = AXIS2_PLACEMENT_3D ( 'NONE', #79, #2, #128 ) ;
#18 = CALENDAR_DATE ( 2021, 9, 11 ) ;
#19 =( NAMED_UNIT ( * ) PLANE_ANGLE_UNIT ( ) SI_UNIT ( $, .RADIAN. ) );
#20 = FACE_BOUND ( 'NONE', #184, .T. ) ;
#21 = CC_DESIGN_APPROVAL ( #69, ( #75 ) ) ;
#22 =( NAMED_UNIT ( * ) SI_UNIT ( $, .STERADIAN. ) SOLID_ANGLE_UNIT ( ) );
#23 = CARTESIAN_POINT ( 'NONE',  ( 0.0000000000000000000, 0.0000000000000000000, 0.0000000000000000000 ) ) ;
#24 = ADVANCED_FACE ( 'NONE', ( #168 ), #169, .T. ) ;
#25 = DATE_AND_TIME ( #180, #1 ) ;
#26 = CC_DESIGN_PERSON_AND_ORGANIZATION_ASSIGNMENT ( #116, #178, ( #75 ) ) ;
#27 = CIRCLE ( 'NONE', #31, 2.500000000000000000 ) ;
#28 = COORDINATED_UNIVERSAL_TIME_OFFSET ( 1, 0, .AHEAD. ) ;
#29 = ORIENTED_EDGE ( 'NONE', *, *, #99, .T. ) ;
#30 = CLOSED_SHELL ( 'NONE', ( #123, #58, #24 ) ) ;
#31 = AXIS2_PLACEMENT_3D ( 'NONE', #113, #161, #4 ) ;
#32 = EDGE_CURVE ( 'NONE', #88, #88, #72, .T. ) ;
#33 = DIRECTION ( 'NONE',  ( 4.275831445896958607E-31, 1.000000000000000000, 1.224646799147353207E-16 ) ) ;
#34 = FACE_OUTER_BOUND ( 'NONE', #103, .T. ) ;
#35 = CYLINDRICAL_SURFACE ( 'NONE', #68, 2.499999999999998668 ) ;
#36 = VERTEX_POINT ( 'NONE', #134 ) ;
#37 = CC_DESIGN_PERSON_AND_ORGANIZATION_ASSIGNMENT ( #136, #59, ( #196 ) ) ;
#38 = VERTEX_POINT ( 'NONE', #193 ) ;
#39 = DIRECTION ( 'NONE',  ( 4.275831445896959482E-31, 1.000000000000000000, 1.224646799147353207E-16 ) ) ;
#40 = PRODUCT_RELATED_PRODUCT_CATEGORY ( 'detail', '', ( #45 ) ) ;
#41 =( GEOMETRIC_REPRESENTATION_CONTEXT ( 3 ) GLOBAL_UNCERTAINTY_ASSIGNED_CONTEXT ( ( #189 ) ) GLOBAL_UNIT_ASSIGNED_CONTEXT ( ( #145, #19, #22 ) ) REPRESENTATION_CONTEXT ( 'NONE', 'WORKASPACE' ) );
#42 = CALENDAR_DATE ( 2021, 9, 11 ) ;
#43 = CARTESIAN_POINT ( 'NONE',  ( 0.0000000000000000000, 0.0000000000000000000, 0.0000000000000000000 ) ) ;
#44 = LOCAL_TIME ( 10, 13, 6.000000000000000000, #96 ) ;
#45 = PRODUCT ( '60233', '60233', '', ( #51 ) ) ;
#46 = DATE_TIME_ROLE ( 'classification_date' ) ;
#47 = CLOSED_SHELL ( 'NONE', ( #135, #197, #108, #53 ) ) ;
#48 = FACE_OUTER_BOUND ( 'NONE', #126, .T. ) ;
#49 = DIRECTION ( 'NONE',  ( -3.491481338843133355E-15, 1.224646799147353207E-16, -1.000000000000000000 ) ) ;
#50 = FACE_OUTER_BOUND ( 'NONE', #60, .T. ) ;
#51 = MECHANICAL_CONTEXT ( 'NONE', #97, 'mechanical' ) ;
#52 = APPROVAL_PERSON_ORGANIZATION ( #132, #105, #177 ) ;
#53 = ADVANCED_FACE ( 'NONE', ( #187 ), #82, .F. ) ;
#54 = APPLICATION_PROTOCOL_DEFINITION ( 'international standard', 'config_control_design', 1994, #16 ) ;
#55 = CC_DESIGN_PERSON_AND_ORGANIZATION_ASSIGNMENT ( #118, #195, ( #45 ) ) ;
#56 = APPLICATION_PROTOCOL_DEFINITION ( 'international standard', 'config_control_design', 1994, #97 ) ;
#57 = DIRECTION ( 'NONE',  ( 0.0000000000000000000, 1.000000000000000000, 0.0000000000000000000 ) ) ;
#58 = ADVANCED_FACE ( 'NONE', ( #66, #34 ), #173, .T. ) ;
#59 = PERSON_AND_ORGANIZATION_ROLE ( 'creator' ) ;
#60 = EDGE_LOOP ( 'NONE', ( #202 ) ) ;
#61 = EDGE_LOOP ( 'NONE', ( #124 ) ) ;
#62 = SECURITY_CLASSIFICATION_LEVEL ( 'unclassified' ) ;
#63 = AXIS2_PLACEMENT_3D ( 'NONE', #129, #174, #33 ) ;
#64 = EDGE_LOOP ( 'NONE', ( #150 ) ) ;
#65 = DIRECTION ( 'NONE',  ( -3.491481338843133355E-15, 1.224646799147353207E-16, -1.000000000000000000 ) ) ;
#66 = FACE_OUTER_BOUND ( 'NONE', #198, .T. ) ;
#67 = CARTESIAN_POINT ( 'NONE',  ( 1.222018468595096801E-13, -4.286263797015736496E-15, 35.00000000000000000 ) ) ;
#68 = AXIS2_PLACEMENT_3D ( 'NONE', #43, #89, #39 ) ;
#69 = APPROVAL ( #148, 'UNSPECIFIED' ) ;
#70 = CARTESIAN_POINT ( 'NONE',  ( 2.601153597438135044E-13, -9.123618653647784315E-15, 74.50000000000002842 ) ) ;
#71 = DATE_TIME_ROLE ( 'creation_date' ) ;
#72 = CIRCLE ( 'NONE', #84, 2.500000000000000000 ) ;
#73 = LOCAL_TIME ( 10, 13, 6.000000000000000000, #201 ) ;
#74 = PERSON_AND_ORGANIZATION_ROLE ( 'design_supplier' ) ;
#75 = PRODUCT_DEFINITION ( 'UNKNOWN', '', #196, #85 ) ;
#76 = AXIS2_PLACEMENT_3D ( 'NONE', #70, #112, #130 ) ;
#77 = LOCAL_TIME ( 10, 13, 6.000000000000000000, #98 ) ;
#78 = AXIS2_PLACEMENT_3D ( 'NONE', #165, #10, #183 ) ;
#79 = CARTESIAN_POINT ( 'NONE',  ( 2.618611004132350143E-13, 1.499759782661846934E-32, 75.00000000000000000 ) ) ;
#80 = ORGANIZATION ( 'UNSPECIFIED', 'UNSPECIFIED', '' ) ;
#81 = CARTESIAN_POINT ( 'NONE',  ( -5.344789307371197820E-31, 1.874699728327322010E-32, -1.530808498934191571E-16 ) ) ;
#82 = PLANE ( 'NONE',  #17 ) ;
#83 = DIRECTION ( 'NONE',  ( 3.491481338843133355E-15, -1.224646799147353207E-16, 1.000000000000000000 ) ) ;
#84 = AXIS2_PLACEMENT_3D ( 'NONE', #14, #175, #160 ) ;
#85 = DESIGN_CONTEXT ( 'detailed design', #16, 'design' ) ;
#86 = COORDINATED_UNIVERSAL_TIME_OFFSET ( 1, 0, .AHEAD. ) ;
#87 = MANIFOLD_SOLID_BREP ( 'Corps-Déplacer/Copier1[1]', #47 ) ;
#88 = VERTEX_POINT ( 'NONE', #100 ) ;
#89 = DIRECTION ( 'NONE',  ( -3.491481338843133355E-15, 1.224646799147353207E-16, -1.000000000000000000 ) ) ;
#90 = APPROVAL ( #171, 'UNSPECIFIED' ) ;
#91 = CIRCLE ( 'NONE', #114, 2.500000000000000000 ) ;
#92 = PERSON_AND_ORGANIZATION ( #140, #80 ) ;
#93 = CARTESIAN_POINT ( 'NONE',  ( 2.618611004132350143E-13, -9.184850993605148733E-15, 75.00000000000000000 ) ) ;
#94 = ORIENTED_EDGE ( 'NONE', *, *, #117, .T. ) ;
#95 = CARTESIAN_POINT ( 'NONE',  ( 1.222018468595096801E-13, 1.874699728327315715E-32, 35.00000000000000000 ) ) ;
#96 = COORDINATED_UNIVERSAL_TIME_OFFSET ( 1, 0, .AHEAD. ) ;
#97 = APPLICATION_CONTEXT ( 'configuration controlled 3d designs of mechanical parts and assemblies' ) ;
#98 = COORDINATED_UNIVERSAL_TIME_OFFSET ( 1, 0, .AHEAD. ) ;
#99 = EDGE_CURVE ( 'NONE', #147, #147, #91, .T. ) ;
#100 = CARTESIAN_POINT ( 'NONE',  ( 0.0000000000000000000, 2.500000000000000000, 0.0000000000000000000 ) ) ;
#101 = CALENDAR_DATE ( 2021, 9, 11 ) ;
#102 = EDGE_LOOP ( 'NONE', ( #172 ) ) ;
#103 = EDGE_LOOP ( 'NONE', ( #139 ) ) ;
#104 = DATE_AND_TIME ( #101, #73 ) ;
#105 = APPROVAL ( #115, 'UNSPECIFIED' ) ;
#106 = APPROVAL_PERSON_ORGANIZATION ( #92, #90, #154 ) ;
#107 = ORIENTED_EDGE ( 'NONE', *, *, #200, .T. ) ;
#108 = ADVANCED_FACE ( 'NONE', ( #20, #164 ), #166, .T. ) ;
#109 = AXIS2_PLACEMENT_3D ( 'NONE', #81, #156, #186 ) ;
#110 = CC_DESIGN_SECURITY_CLASSIFICATION ( #151, ( #196 ) ) ;
#111 = ADVANCED_BREP_SHAPE_REPRESENTATION ( '60233', ( #87, #153, #12 ), #41 ) ;
#112 = DIRECTION ( 'NONE',  ( -3.491481338843133355E-15, 1.224646799147353207E-16, -1.000000000000000000 ) ) ;
#113 = CARTESIAN_POINT ( 'NONE',  ( 1.222018468595096801E-13, -4.286263797015736496E-15, 35.00000000000000000 ) ) ;
#114 = AXIS2_PLACEMENT_3D ( 'NONE', #67, #49, #57 ) ;
#115 = APPROVAL_STATUS ( 'not_yet_approved' ) ;
#116 = PERSON_AND_ORGANIZATION ( #140, #80 ) ;
#117 = EDGE_CURVE ( 'NONE', #38, #38, #199, .T. ) ;
#118 = PERSON_AND_ORGANIZATION ( #140, #80 ) ;
#119 = PERSON_AND_ORGANIZATION ( #140, #80 ) ;
#120 = PERSON_AND_ORGANIZATION ( #140, #80 ) ;
#121 = DATE_AND_TIME ( #149, #7 ) ;
#122 = EDGE_LOOP ( 'NONE', ( #182 ) ) ;
#123 = ADVANCED_FACE ( 'NONE', ( #181 ), #190, .T. ) ;
#124 = ORIENTED_EDGE ( 'NONE', *, *, #200, .F. ) ;
#125 = CC_DESIGN_PERSON_AND_ORGANIZATION_ASSIGNMENT ( #152, #13, ( #151 ) ) ;
#126 = EDGE_LOOP ( 'NONE', ( #29 ) ) ;
#127 = DIRECTION ( 'NONE',  ( 0.0000000000000000000, 1.000000000000000000, 0.0000000000000000000 ) ) ;
#128 = DIRECTION ( 'NONE',  ( 4.275831445896958607E-31, 1.000000000000000000, 1.224646799147353207E-16 ) ) ;
#129 = CARTESIAN_POINT ( 'NONE',  ( 0.0000000000000000000, 0.0000000000000000000, 0.0000000000000000000 ) ) ;
#130 = DIRECTION ( 'NONE',  ( 0.0000000000000000000, 1.000000000000000000, 0.0000000000000000000 ) ) ;
#131 = APPROVAL_ROLE ( '' ) ;
#132 = PERSON_AND_ORGANIZATION ( #140, #80 ) ;
#133 = DIRECTION ( 'NONE',  ( 0.0000000000000000000, 0.0000000000000000000, 1.000000000000000000 ) ) ;
#134 = CARTESIAN_POINT ( 'NONE',  ( 2.601153597438135044E-13, 2.499999999999988454, 74.50000000000002842 ) ) ;
#135 = ADVANCED_FACE ( 'NONE', ( #48 ), #15, .F. ) ;
#136 = PERSON_AND_ORGANIZATION ( #140, #80 ) ;
#137 = AXIS2_PLACEMENT_3D ( 'NONE', #95, #83, #142 ) ;
#138 = EDGE_CURVE ( 'NONE', #36, #36, #162, .T. ) ;
#139 = ORIENTED_EDGE ( 'NONE', *, *, #32, .F. ) ;
#140 = PERSON ( 'UNSPECIFIED', 'UNSPECIFIED', 'UNSPECIFIED', ('UNSPECIFIED'), ('UNSPECIFIED'), ('UNSPECIFIED') ) ;
#141 = DIRECTION ( 'NONE',  ( -4.275831445896958607E-31, -1.000000000000000000, -1.224646799147353207E-16 ) ) ;
#142 = DIRECTION ( 'NONE',  ( -4.275831445896958607E-31, -1.000000000000000000, -1.224646799147353207E-16 ) ) ;
#143 = APPROVAL_PERSON_ORGANIZATION ( #119, #69, #131 ) ;
#144 = DATE_AND_TIME ( #42, #77 ) ;
#145 =( LENGTH_UNIT ( ) NAMED_UNIT ( * ) SI_UNIT ( .MILLI., .METRE. ) );
#146 = CC_DESIGN_APPROVAL ( #105, ( #196 ) ) ;
#147 = VERTEX_POINT ( 'NONE', #6 ) ;
#148 = APPROVAL_STATUS ( 'not_yet_approved' ) ;
#149 = CALENDAR_DATE ( 2021, 9, 11 ) ;
#150 = ORIENTED_EDGE ( 'NONE', *, *, #117, .F. ) ;
#151 = SECURITY_CLASSIFICATION ( '', '', #62 ) ;
#152 = PERSON_AND_ORGANIZATION ( #140, #80 ) ;
#153 = MANIFOLD_SOLID_BREP ( 'Corps-Déplacer/Copier1[2]', #30 ) ;
#154 = APPROVAL_ROLE ( '' ) ;
#155 = ORIENTED_EDGE ( 'NONE', *, *, #99, .F. ) ;
#156 = DIRECTION ( 'NONE',  ( -3.491481338843133355E-15, 1.224646799147353207E-16, -1.000000000000000000 ) ) ;
#157 = CC_DESIGN_DATE_AND_TIME_ASSIGNMENT ( #144, #71, ( #75 ) ) ;
#158 = CC_DESIGN_PERSON_AND_ORGANIZATION_ASSIGNMENT ( #120, #74, ( #196 ) ) ;
#159 = DIRECTION ( 'NONE',  ( 1.000000000000000000, 0.0000000000000000000, 0.0000000000000000000 ) ) ;
#160 = DIRECTION ( 'NONE',  ( 4.275831445896958607E-31, 1.000000000000000000, 1.224646799147353207E-16 ) ) ;
#161 = DIRECTION ( 'NONE',  ( -3.491481338843133355E-15, 1.224646799147353207E-16, -1.000000000000000000 ) ) ;
#162 = CIRCLE ( 'NONE', #76, 2.499999999999997335 ) ;
#163 = VERTEX_POINT ( 'NONE', #191 ) ;
#164 = FACE_OUTER_BOUND ( 'NONE', #122, .T. ) ;
#165 = CARTESIAN_POINT ( 'NONE',  ( 2.601153597438135044E-13, -9.123618653647784315E-15, 74.50000000000002842 ) ) ;
#166 = CONICAL_SURFACE ( 'NONE', #78, 2.499999999999997335, 0.7853981633974691512 ) ;
#167 = SHAPE_DEFINITION_REPRESENTATION ( #203, #111 ) ;
#168 = FACE_OUTER_BOUND ( 'NONE', #61, .T. ) ;
#169 = PLANE ( 'NONE',  #170 ) ;
#170 = AXIS2_PLACEMENT_3D ( 'NONE', #185, #192, #141 ) ;
#171 = APPROVAL_STATUS ( 'not_yet_approved' ) ;
#172 = ORIENTED_EDGE ( 'NONE', *, *, #32, .T. ) ;
#173 = CYLINDRICAL_SURFACE ( 'NONE', #63, 2.500000000000000000 ) ;
#174 = DIRECTION ( 'NONE',  ( -3.491481338843133355E-15, 1.224646799147353207E-16, -1.000000000000000000 ) ) ;
#175 = DIRECTION ( 'NONE',  ( -3.491481338843133355E-15, 1.224646799147353207E-16, -1.000000000000000000 ) ) ;
#176 = FACE_OUTER_BOUND ( 'NONE', #11, .T. ) ;
#177 = APPROVAL_ROLE ( '' ) ;
#178 = PERSON_AND_ORGANIZATION_ROLE ( 'creator' ) ;
#179 = APPROVAL_DATE_TIME ( #194, #69 ) ;
#180 = CALENDAR_DATE ( 2021, 9, 11 ) ;
#181 = FACE_OUTER_BOUND ( 'NONE', #102, .T. ) ;
#182 = ORIENTED_EDGE ( 'NONE', *, *, #138, .F. ) ;
#183 = DIRECTION ( 'NONE',  ( 0.0000000000000000000, 1.000000000000000000, 0.0000000000000000000 ) ) ;
#184 = EDGE_LOOP ( 'NONE', ( #94 ) ) ;
#185 = CARTESIAN_POINT ( 'NONE',  ( 1.222018468595096801E-13, 1.874699728327315715E-32, 35.00000000000000000 ) ) ;
#186 = DIRECTION ( 'NONE',  ( 4.275831445896958607E-31, 1.000000000000000000, 1.224646799147353207E-16 ) ) ;
#187 = FACE_OUTER_BOUND ( 'NONE', #64, .T. ) ;
#188 = AXIS2_PLACEMENT_3D ( 'NONE', #93, #65, #127 ) ;
#189 = UNCERTAINTY_MEASURE_WITH_UNIT (LENGTH_MEASURE( 1.000000000000000082E-05 ), #145, 'distance_accuracy_value', 'NONE');
#190 = PLANE ( 'NONE',  #109 ) ;
#191 = CARTESIAN_POINT ( 'NONE',  ( 1.222018468595096801E-13, 2.499999999999995559, 35.00000000000000000 ) ) ;
#192 = DIRECTION ( 'NONE',  ( 3.491481338843133355E-15, -1.224646799147353207E-16, 1.000000000000000000 ) ) ;
#193 = CARTESIAN_POINT ( 'NONE',  ( 2.618611004132350143E-13, 1.999999999999994893, 75.00000000000000000 ) ) ;
#194 = DATE_AND_TIME ( #18, #44 ) ;
#195 = PERSON_AND_ORGANIZATION_ROLE ( 'design_owner' ) ;
#196 = PRODUCT_DEFINITION_FORMATION_WITH_SPECIFIED_SOURCE ( 'ANY', '', #45, .NOT_KNOWN. ) ;
#197 = ADVANCED_FACE ( 'NONE', ( #50, #176 ), #35, .T. ) ;
#198 = EDGE_LOOP ( 'NONE', ( #107 ) ) ;
#199 = CIRCLE ( 'NONE', #188, 2.000000000000003997 ) ;
#200 = EDGE_CURVE ( 'NONE', #163, #163, #27, .T. ) ;
#201 = COORDINATED_UNIVERSAL_TIME_OFFSET ( 1, 0, .AHEAD. ) ;
#202 = ORIENTED_EDGE ( 'NONE', *, *, #138, .T. ) ;
#203 = PRODUCT_DEFINITION_SHAPE ( 'NONE', 'NONE',  #75 ) ;
ENDSEC;
END-ISO-10303-21;
