ISO-10303-21;
HEADER;
FILE_DESCRIPTION (( 'STEP AP203' ),
    '1' );
FILE_NAME ('60232.step',
    '2021-11-09T09:13:06',
    ( '' ),
    ( '' ),
    'SwSTEP 2.0',
    'SolidWorks 2019',
    '' );
FILE_SCHEMA (( 'CONFIG_CONTROL_DESIGN' ));
ENDSEC;

DATA;
#1 = DIRECTION ( 'NONE',  ( -4.275831445896958607E-31, -1.000000000000000000, -1.224646799147353207E-16 ) ) ;
#2 = FACE_OUTER_BOUND ( 'NONE', #123, .T. ) ;
#3 = EDGE_LOOP ( 'NONE', ( #200 ) ) ;
#4 = PLANE ( 'NONE',  #194 ) ;
#5 = PRODUCT_RELATED_PRODUCT_CATEGORY ( 'detail', '', ( #36 ) ) ;
#6 = CYLINDRICAL_SURFACE ( 'NONE', #147, 1.999999999999997335 ) ;
#7 = COORDINATED_UNIVERSAL_TIME_OFFSET ( 1, 0, .AHEAD. ) ;
#8 = ORGANIZATION ( 'UNSPECIFIED', 'UNSPECIFIED', '' ) ;
#9 = MANIFOLD_SOLID_BREP ( 'Corps-Déplacer/Copier1[2]', #143 ) ;
#10 = CARTESIAN_POINT ( 'NONE',  ( -8.551662891793915461E-31, 2.999519565323715216E-32, -2.449293598294706414E-16 ) ) ;
#11 = DIRECTION ( 'NONE',  ( -3.491481338843133355E-15, 1.224646799147353207E-16, -1.000000000000000000 ) ) ;
#12 = ORIENTED_EDGE ( 'NONE', *, *, #115, .F. ) ;
#13 = DIRECTION ( 'NONE',  ( -3.491481338843133355E-15, 1.224646799147353207E-16, -1.000000000000000000 ) ) ;
#14 = APPROVAL ( #179, 'UNSPECIFIED' ) ;
#15 = AXIS2_PLACEMENT_3D ( 'NONE', #107, #154, #151 ) ;
#16 = FACE_OUTER_BOUND ( 'NONE', #3, .T. ) ;
#17 = PERSON_AND_ORGANIZATION ( #63, #8 ) ;
#18 = PERSON_AND_ORGANIZATION ( #63, #8 ) ;
#19 = EDGE_CURVE ( 'NONE', #182, #182, #22, .T. ) ;
#20 = PERSON_AND_ORGANIZATION_ROLE ( 'design_owner' ) ;
#21 = APPROVAL_STATUS ( 'not_yet_approved' ) ;
#22 = CIRCLE ( 'NONE', #56, 2.000000000000000000 ) ;
#23 = CC_DESIGN_APPROVAL ( #39, ( #177 ) ) ;
#24 = EDGE_LOOP ( 'NONE', ( #12 ) ) ;
#25 = PERSON_AND_ORGANIZATION ( #63, #8 ) ;
#26 = SHAPE_DEFINITION_REPRESENTATION ( #174, #124 ) ;
#27 = MANIFOLD_SOLID_BREP ( 'Corps-Déplacer/Copier1[1]', #109 ) ;
#28 = COORDINATED_UNIVERSAL_TIME_OFFSET ( 1, 0, .AHEAD. ) ;
#29 = ORIENTED_EDGE ( 'NONE', *, *, #150, .F. ) ;
#30 = EDGE_CURVE ( 'NONE', #141, #141, #164, .T. ) ;
#31 = DIRECTION ( 'NONE',  ( 0.0000000000000000000, 1.000000000000000000, 0.0000000000000000000 ) ) ;
#32 =( GEOMETRIC_REPRESENTATION_CONTEXT ( 3 ) GLOBAL_UNCERTAINTY_ASSIGNED_CONTEXT ( ( #82 ) ) GLOBAL_UNIT_ASSIGNED_CONTEXT ( ( #52, #142, #53 ) ) REPRESENTATION_CONTEXT ( 'NONE', 'WORKASPACE' ) );
#33 = FACE_OUTER_BOUND ( 'NONE', #75, .T. ) ;
#34 = CC_DESIGN_DATE_AND_TIME_ASSIGNMENT ( #161, #128, ( #177 ) ) ;
#35 = CARTESIAN_POINT ( 'NONE',  ( 2.094888803305879761E-13, -7.347880794884118356E-15, 59.99999999999999289 ) ) ;
#36 = PRODUCT ( '60232', '60232', '', ( #38 ) ) ;
#37 = DIRECTION ( 'NONE',  ( 4.275831445896958607E-31, 1.000000000000000000, 1.224646799147353207E-16 ) ) ;
#38 = MECHANICAL_CONTEXT ( 'NONE', #140, 'mechanical' ) ;
#39 = APPROVAL ( #21, 'UNSPECIFIED' ) ;
#40 = CARTESIAN_POINT ( 'NONE',  ( 1.047444401652940007E-13, 1.999999999999996669, 30.00000000000000000 ) ) ;
#41 = AXIS2_PLACEMENT_3D ( 'NONE', #81, #78, #31 ) ;
#42 = PERSON_AND_ORGANIZATION ( #63, #8 ) ;
#43 = CIRCLE ( 'NONE', #188, 2.000000000000000000 ) ;
#44 = ADVANCED_FACE ( 'NONE', ( #108 ), #4, .T. ) ;
#45 = EDGE_LOOP ( 'NONE', ( #49 ) ) ;
#46 = CARTESIAN_POINT ( 'NONE',  ( 2.080922877950507480E-13, -7.298894922918224927E-15, 59.60000000000000142 ) ) ;
#47 = DIRECTION ( 'NONE',  ( 4.275831445896958607E-31, 1.000000000000000000, 1.224646799147353207E-16 ) ) ;
#48 = FACE_OUTER_BOUND ( 'NONE', #146, .T. ) ;
#49 = ORIENTED_EDGE ( 'NONE', *, *, #30, .T. ) ;
#50 = DIRECTION ( 'NONE',  ( 4.275831445896959482E-31, 1.000000000000000000, 1.224646799147353454E-16 ) ) ;
#51 = ADVANCED_FACE ( 'NONE', ( #60, #48 ), #111, .T. ) ;
#52 =( LENGTH_UNIT ( ) NAMED_UNIT ( * ) SI_UNIT ( .MILLI., .METRE. ) );
#53 =( NAMED_UNIT ( * ) SI_UNIT ( $, .STERADIAN. ) SOLID_ANGLE_UNIT ( ) );
#54 = APPROVAL_ROLE ( '' ) ;
#55 = ADVANCED_FACE ( 'NONE', ( #95 ), #93, .F. ) ;
#56 = AXIS2_PLACEMENT_3D ( 'NONE', #190, #77, #122 ) ;
#57 = APPROVAL_DATE_TIME ( #167, #14 ) ;
#58 = APPROVAL_PERSON_ORGANIZATION ( #129, #14, #195 ) ;
#59 = EDGE_LOOP ( 'NONE', ( #165 ) ) ;
#60 = FACE_BOUND ( 'NONE', #45, .T. ) ;
#61 = CARTESIAN_POINT ( 'NONE',  ( 0.0000000000000000000, 0.0000000000000000000, 0.0000000000000000000 ) ) ;
#62 = LOCAL_TIME ( 10, 13, 6.000000000000000000, #102 ) ;
#63 = PERSON ( 'UNSPECIFIED', 'UNSPECIFIED', 'UNSPECIFIED', ('UNSPECIFIED'), ('UNSPECIFIED'), ('UNSPECIFIED') ) ;
#64 = ORIENTED_EDGE ( 'NONE', *, *, #19, .T. ) ;
#65 = FACE_OUTER_BOUND ( 'NONE', #104, .T. ) ;
#66 = CARTESIAN_POINT ( 'NONE',  ( 0.0000000000000000000, 0.0000000000000000000, 0.0000000000000000000 ) ) ;
#67 = LOCAL_TIME ( 10, 13, 6.000000000000000000, #114 ) ;
#68 = CALENDAR_DATE ( 2021, 9, 11 ) ;
#69 = CC_DESIGN_PERSON_AND_ORGANIZATION_ASSIGNMENT ( #163, #20, ( #36 ) ) ;
#70 = DIRECTION ( 'NONE',  ( 1.000000000000000000, 0.0000000000000000000, 0.0000000000000000000 ) ) ;
#71 = AXIS2_PLACEMENT_3D ( 'NONE', #156, #97, #120 ) ;
#72 = DATE_TIME_ROLE ( 'classification_date' ) ;
#73 = AXIS2_PLACEMENT_3D ( 'NONE', #171, #83, #1 ) ;
#74 = DATE_AND_TIME ( #183, #196 ) ;
#75 = EDGE_LOOP ( 'NONE', ( #101 ) ) ;
#76 = AXIS2_PLACEMENT_3D ( 'NONE', #176, #87, #70 ) ;
#77 = DIRECTION ( 'NONE',  ( -3.491481338843133355E-15, 1.224646799147353207E-16, -1.000000000000000000 ) ) ;
#78 = DIRECTION ( 'NONE',  ( -3.491481338843133355E-15, 1.224646799147353207E-16, -1.000000000000000000 ) ) ;
#79 = CC_DESIGN_PERSON_AND_ORGANIZATION_ASSIGNMENT ( #17, #145, ( #177 ) ) ;
#80 = ORIENTED_EDGE ( 'NONE', *, *, #19, .F. ) ;
#81 = CARTESIAN_POINT ( 'NONE',  ( 2.080922877950507480E-13, -7.298894922918224927E-15, 59.60000000000000142 ) ) ;
#82 = UNCERTAINTY_MEASURE_WITH_UNIT (LENGTH_MEASURE( 1.000000000000000082E-05 ), #52, 'distance_accuracy_value', 'NONE');
#83 = DIRECTION ( 'NONE',  ( 3.491481338843133355E-15, -1.224646799147353207E-16, 1.000000000000000000 ) ) ;
#84 = EDGE_CURVE ( 'NONE', #100, #100, #43, .T. ) ;
#85 = APPROVAL_DATE_TIME ( #144, #39 ) ;
#86 = DIRECTION ( 'NONE',  ( -3.491481338843133355E-15, 1.224646799147353207E-16, -1.000000000000000000 ) ) ;
#87 = DIRECTION ( 'NONE',  ( 0.0000000000000000000, 0.0000000000000000000, 1.000000000000000000 ) ) ;
#88 = AXIS2_PLACEMENT_3D ( 'NONE', #61, #187, #47 ) ;
#89 = ORIENTED_EDGE ( 'NONE', *, *, #30, .F. ) ;
#90 = ADVANCED_FACE ( 'NONE', ( #65 ), #172, .T. ) ;
#91 = CALENDAR_DATE ( 2021, 9, 11 ) ;
#92 = CC_DESIGN_SECURITY_CLASSIFICATION ( #170, ( #121 ) ) ;
#93 = PLANE ( 'NONE',  #15 ) ;
#94 = LOCAL_TIME ( 10, 13, 6.000000000000000000, #7 ) ;
#95 = FACE_OUTER_BOUND ( 'NONE', #185, .T. ) ;
#96 = ORIENTED_EDGE ( 'NONE', *, *, #84, .T. ) ;
#97 = DIRECTION ( 'NONE',  ( -3.491481338843133355E-15, 1.224646799147353207E-16, -1.000000000000000000 ) ) ;
#98 = DIRECTION ( 'NONE',  ( 3.491481338843133355E-15, -1.224646799147353207E-16, 1.000000000000000000 ) ) ;
#99 = APPLICATION_PROTOCOL_DEFINITION ( 'international standard', 'config_control_design', 1994, #149 ) ;
#100 = VERTEX_POINT ( 'NONE', #126 ) ;
#101 = ORIENTED_EDGE ( 'NONE', *, *, #150, .T. ) ;
#102 = COORDINATED_UNIVERSAL_TIME_OFFSET ( 1, 0, .AHEAD. ) ;
#103 = CC_DESIGN_APPROVAL ( #133, ( #170 ) ) ;
#104 = EDGE_LOOP ( 'NONE', ( #80 ) ) ;
#105 = DIRECTION ( 'NONE',  ( -3.491481338843133355E-15, 1.224646799147353207E-16, -1.000000000000000000 ) ) ;
#106 = DIRECTION ( 'NONE',  ( -4.275831445896958607E-31, -1.000000000000000000, -1.224646799147353207E-16 ) ) ;
#107 = CARTESIAN_POINT ( 'NONE',  ( 2.094888803305880013E-13, 1.199807826129473360E-32, 60.00000000000000000 ) ) ;
#108 = FACE_OUTER_BOUND ( 'NONE', #155, .T. ) ;
#109 = CLOSED_SHELL ( 'NONE', ( #132, #198, #51, #55 ) ) ;
#110 = CARTESIAN_POINT ( 'NONE',  ( 1.047444401652940007E-13, 1.999999999999996669, 30.00000000000000000 ) ) ;
#111 = CONICAL_SURFACE ( 'NONE', #127, 1.999999999999995337, 0.7853981633974569387 ) ;
#112 = CALENDAR_DATE ( 2021, 9, 11 ) ;
#113 = CC_DESIGN_DATE_AND_TIME_ASSIGNMENT ( #130, #72, ( #170 ) ) ;
#114 = COORDINATED_UNIVERSAL_TIME_OFFSET ( 1, 0, .AHEAD. ) ;
#115 = EDGE_CURVE ( 'NONE', #180, #180, #203, .T. ) ;
#116 = SECURITY_CLASSIFICATION_LEVEL ( 'unclassified' ) ;
#117 = PERSON_AND_ORGANIZATION_ROLE ( 'creator' ) ;
#118 = APPROVAL_PERSON_ORGANIZATION ( #25, #133, #148 ) ;
#119 = DIRECTION ( 'NONE',  ( 0.0000000000000000000, 1.000000000000000000, 0.0000000000000000000 ) ) ;
#120 = DIRECTION ( 'NONE',  ( 0.0000000000000000000, 1.000000000000000000, 0.0000000000000000000 ) ) ;
#121 = PRODUCT_DEFINITION_FORMATION_WITH_SPECIFIED_SOURCE ( 'ANY', '', #36, .NOT_KNOWN. ) ;
#122 = DIRECTION ( 'NONE',  ( 0.0000000000000000000, 1.000000000000000000, 0.0000000000000000000 ) ) ;
#123 = EDGE_LOOP ( 'NONE', ( #64 ) ) ;
#124 = ADVANCED_BREP_SHAPE_REPRESENTATION ( '60232', ( #27, #9, #76 ), #32 ) ;
#125 = CARTESIAN_POINT ( 'NONE',  ( 2.080922877950507480E-13, 1.999999999999988010, 59.60000000000000142 ) ) ;
#126 = CARTESIAN_POINT ( 'NONE',  ( 1.710569414459005214E-46, 2.000000000000000000, 0.0000000000000000000 ) ) ;
#127 = AXIS2_PLACEMENT_3D ( 'NONE', #46, #13, #119 ) ;
#128 = DATE_TIME_ROLE ( 'creation_date' ) ;
#129 = PERSON_AND_ORGANIZATION ( #63, #8 ) ;
#130 = DATE_AND_TIME ( #91, #62 ) ;
#131 = PERSON_AND_ORGANIZATION_ROLE ( 'design_supplier' ) ;
#132 = ADVANCED_FACE ( 'NONE', ( #16 ), #186, .F. ) ;
#133 = APPROVAL ( #199, 'UNSPECIFIED' ) ;
#134 = CIRCLE ( 'NONE', #41, 1.999999999999995337 ) ;
#135 = DIRECTION ( 'NONE',  ( 4.275831445896958607E-31, 1.000000000000000000, 1.224646799147353207E-16 ) ) ;
#136 = CYLINDRICAL_SURFACE ( 'NONE', #88, 2.000000000000000000 ) ;
#137 = CARTESIAN_POINT ( 'NONE',  ( -4.275831445896957731E-31, 1.499759782661857608E-32, -1.224646799147353207E-16 ) ) ;
#138 = AXIS2_PLACEMENT_3D ( 'NONE', #173, #98, #106 ) ;
#139 = FACE_OUTER_BOUND ( 'NONE', #59, .T. ) ;
#140 = APPLICATION_CONTEXT ( 'configuration controlled 3d designs of mechanical parts and assemblies' ) ;
#141 = VERTEX_POINT ( 'NONE', #160 ) ;
#142 =( NAMED_UNIT ( * ) PLANE_ANGLE_UNIT ( ) SI_UNIT ( $, .RADIAN. ) );
#143 = CLOSED_SHELL ( 'NONE', ( #44, #197, #90 ) ) ;
#144 = DATE_AND_TIME ( #159, #67 ) ;
#145 = PERSON_AND_ORGANIZATION_ROLE ( 'creator' ) ;
#146 = EDGE_LOOP ( 'NONE', ( #29 ) ) ;
#147 = AXIS2_PLACEMENT_3D ( 'NONE', #66, #86, #50 ) ;
#148 = APPROVAL_ROLE ( '' ) ;
#149 = APPLICATION_CONTEXT ( 'configuration controlled 3d designs of mechanical parts and assemblies' ) ;
#150 = EDGE_CURVE ( 'NONE', #191, #191, #134, .T. ) ;
#151 = DIRECTION ( 'NONE',  ( 4.275831445896958607E-31, 1.000000000000000000, 1.224646799147353207E-16 ) ) ;
#152 = APPROVAL_PERSON_ORGANIZATION ( #18, #39, #54 ) ;
#153 = CC_DESIGN_PERSON_AND_ORGANIZATION_ASSIGNMENT ( #202, #117, ( #121 ) ) ;
#154 = DIRECTION ( 'NONE',  ( -3.491481338843133355E-15, 1.224646799147353207E-16, -1.000000000000000000 ) ) ;
#155 = EDGE_LOOP ( 'NONE', ( #96 ) ) ;
#156 = CARTESIAN_POINT ( 'NONE',  ( 1.047444401652940007E-13, -3.673940397442059178E-15, 30.00000000000000000 ) ) ;
#157 = CC_DESIGN_PERSON_AND_ORGANIZATION_ASSIGNMENT ( #42, #131, ( #121 ) ) ;
#158 = DIRECTION ( 'NONE',  ( 0.0000000000000000000, 1.000000000000000000, 0.0000000000000000000 ) ) ;
#159 = CALENDAR_DATE ( 2021, 9, 11 ) ;
#160 = CARTESIAN_POINT ( 'NONE',  ( 2.094888803305879761E-13, 1.599999999999990319, 59.99999999999999289 ) ) ;
#161 = DATE_AND_TIME ( #68, #94 ) ;
#162 = FACE_OUTER_BOUND ( 'NONE', #24, .T. ) ;
#163 = PERSON_AND_ORGANIZATION ( #63, #8 ) ;
#164 = CIRCLE ( 'NONE', #169, 1.599999999999997646 ) ;
#165 = ORIENTED_EDGE ( 'NONE', *, *, #84, .F. ) ;
#166 = CC_DESIGN_APPROVAL ( #14, ( #121 ) ) ;
#167 = DATE_AND_TIME ( #112, #181 ) ;
#168 = PERSON_AND_ORGANIZATION_ROLE ( 'classification_officer' ) ;
#169 = AXIS2_PLACEMENT_3D ( 'NONE', #35, #11, #158 ) ;
#170 = SECURITY_CLASSIFICATION ( '', '', #116 ) ;
#171 = CARTESIAN_POINT ( 'NONE',  ( 1.047444401652940007E-13, 1.499759782661852681E-32, 30.00000000000000000 ) ) ;
#172 = PLANE ( 'NONE',  #138 ) ;
#173 = CARTESIAN_POINT ( 'NONE',  ( 1.047444401652940007E-13, 1.499759782661852681E-32, 30.00000000000000000 ) ) ;
#174 = PRODUCT_DEFINITION_SHAPE ( 'NONE', 'NONE',  #177 ) ;
#175 = DESIGN_CONTEXT ( 'detailed design', #149, 'design' ) ;
#176 = CARTESIAN_POINT ( 'NONE',  ( 0.0000000000000000000, 0.0000000000000000000, 0.0000000000000000000 ) ) ;
#177 = PRODUCT_DEFINITION ( 'UNKNOWN', '', #121, #175 ) ;
#178 = CC_DESIGN_PERSON_AND_ORGANIZATION_ASSIGNMENT ( #184, #168, ( #170 ) ) ;
#179 = APPROVAL_STATUS ( 'not_yet_approved' ) ;
#180 = VERTEX_POINT ( 'NONE', #40 ) ;
#181 = LOCAL_TIME ( 10, 13, 6.000000000000000000, #192 ) ;
#182 = VERTEX_POINT ( 'NONE', #110 ) ;
#183 = CALENDAR_DATE ( 2021, 9, 11 ) ;
#184 = PERSON_AND_ORGANIZATION ( #63, #8 ) ;
#185 = EDGE_LOOP ( 'NONE', ( #89 ) ) ;
#186 = PLANE ( 'NONE',  #73 ) ;
#187 = DIRECTION ( 'NONE',  ( -3.491481338843133355E-15, 1.224646799147353207E-16, -1.000000000000000000 ) ) ;
#188 = AXIS2_PLACEMENT_3D ( 'NONE', #10, #105, #37 ) ;
#189 = DIRECTION ( 'NONE',  ( -3.491481338843133355E-15, 1.224646799147353207E-16, -1.000000000000000000 ) ) ;
#190 = CARTESIAN_POINT ( 'NONE',  ( 1.047444401652940007E-13, -3.673940397442059178E-15, 30.00000000000000000 ) ) ;
#191 = VERTEX_POINT ( 'NONE', #125 ) ;
#192 = COORDINATED_UNIVERSAL_TIME_OFFSET ( 1, 0, .AHEAD. ) ;
#193 = APPLICATION_PROTOCOL_DEFINITION ( 'international standard', 'config_control_design', 1994, #140 ) ;
#194 = AXIS2_PLACEMENT_3D ( 'NONE', #137, #189, #135 ) ;
#195 = APPROVAL_ROLE ( '' ) ;
#196 = LOCAL_TIME ( 10, 13, 6.000000000000000000, #28 ) ;
#197 = ADVANCED_FACE ( 'NONE', ( #2, #139 ), #136, .T. ) ;
#198 = ADVANCED_FACE ( 'NONE', ( #33, #162 ), #6, .T. ) ;
#199 = APPROVAL_STATUS ( 'not_yet_approved' ) ;
#200 = ORIENTED_EDGE ( 'NONE', *, *, #115, .T. ) ;
#201 = APPROVAL_DATE_TIME ( #74, #133 ) ;
#202 = PERSON_AND_ORGANIZATION ( #63, #8 ) ;
#203 = CIRCLE ( 'NONE', #71, 2.000000000000000000 ) ;
ENDSEC;
END-ISO-10303-21;
