ISO-10303-21;
HEADER;
FILE_DESCRIPTION (( 'STEP AP203' ),
    '1' );
FILE_NAME ('60231.step',
    '2021-11-09T09:13:05',
    ( '' ),
    ( '' ),
    'SwSTEP 2.0',
    'SolidWorks 2019',
    '' );
FILE_SCHEMA (( 'CONFIG_CONTROL_DESIGN' ));
ENDSEC;

DATA;
#1 = COORDINATED_UNIVERSAL_TIME_OFFSET ( 1, 0, .AHEAD. ) ;
#2 = PERSON_AND_ORGANIZATION ( #141, #167 ) ;
#3 = AXIS2_PLACEMENT_3D ( 'NONE', #170, #24, #155 ) ;
#4 = DATE_AND_TIME ( #148, #162 ) ;
#5 = COORDINATED_UNIVERSAL_TIME_OFFSET ( 1, 0, .AHEAD. ) ;
#6 = EDGE_CURVE ( 'NONE', #184, #184, #190, .T. ) ;
#7 = CC_DESIGN_APPROVAL ( #152, ( #34 ) ) ;
#8 = EDGE_LOOP ( 'NONE', ( #68 ) ) ;
#9 = EDGE_LOOP ( 'NONE', ( #178 ) ) ;
#10 = AXIS2_PLACEMENT_3D ( 'NONE', #194, #82, #36 ) ;
#11 = CARTESIAN_POINT ( 'NONE',  ( 1.047444401652940007E-13, 1.124819836996387869E-32, 30.00000000000000000 ) ) ;
#12 = PRODUCT_DEFINITION_FORMATION_WITH_SPECIFIED_SOURCE ( 'ANY', '', #20, .NOT_KNOWN. ) ;
#13 = FACE_OUTER_BOUND ( 'NONE', #164, .T. ) ;
#14 = DATE_AND_TIME ( #157, #55 ) ;
#15 = DATE_TIME_ROLE ( 'creation_date' ) ;
#16 = APPROVAL_STATUS ( 'not_yet_approved' ) ;
#17 = LOCAL_TIME ( 10, 13, 5.000000000000000000, #81 ) ;
#18 = COORDINATED_UNIVERSAL_TIME_OFFSET ( 1, 0, .AHEAD. ) ;
#19 = ORIENTED_EDGE ( 'NONE', *, *, #122, .T. ) ;
#20 = PRODUCT ( '60231', '60231', '', ( #125 ) ) ;
#21 = EDGE_LOOP ( 'NONE', ( #193 ) ) ;
#22 = AXIS2_PLACEMENT_3D ( 'NONE', #71, #142, #203 ) ;
#23 = FACE_OUTER_BOUND ( 'NONE', #67, .T. ) ;
#24 = DIRECTION ( 'NONE',  ( -3.491481338843133355E-15, 1.224646799147353207E-16, -1.000000000000000000 ) ) ;
#25 = AXIS2_PLACEMENT_3D ( 'NONE', #165, #196, #56 ) ;
#26 = DIRECTION ( 'NONE',  ( -3.491481338843133355E-15, 1.224646799147353207E-16, -1.000000000000000000 ) ) ;
#27 = FACE_OUTER_BOUND ( 'NONE', #52, .T. ) ;
#28 = APPROVAL_ROLE ( '' ) ;
#29 = CLOSED_SHELL ( 'NONE', ( #111, #139, #161 ) ) ;
#30 = CIRCLE ( 'NONE', #117, 1.499999999999998224 ) ;
#31 = APPROVAL_STATUS ( 'not_yet_approved' ) ;
#32 = SECURITY_CLASSIFICATION_LEVEL ( 'unclassified' ) ;
#33 = CC_DESIGN_APPROVAL ( #70, ( #42 ) ) ;
#34 = PRODUCT_DEFINITION ( 'UNKNOWN', '', #12, #65 ) ;
#35 = APPROVAL_PERSON_ORGANIZATION ( #191, #70, #109 ) ;
#36 = DIRECTION ( 'NONE',  ( 0.0000000000000000000, 1.000000000000000000, 0.0000000000000000000 ) ) ;
#37 = CARTESIAN_POINT ( 'NONE',  ( 1.047444401652940007E-13, 1.499999999999996225, 30.00000000000000000 ) ) ;
#38 = AXIS2_PLACEMENT_3D ( 'NONE', #112, #145, #110 ) ;
#39 = VERTEX_POINT ( 'NONE', #199 ) ;
#40 = DIRECTION ( 'NONE',  ( -3.491481338843133355E-15, 1.224646799147353207E-16, -1.000000000000000000 ) ) ;
#41 = DIRECTION ( 'NONE',  ( -4.275831445896958607E-31, -1.000000000000000000, -1.224646799147353207E-16 ) ) ;
#42 = SECURITY_CLASSIFICATION ( '', '', #32 ) ;
#43 = FACE_OUTER_BOUND ( 'NONE', #132, .T. ) ;
#44 = APPROVAL_STATUS ( 'not_yet_approved' ) ;
#45 = APPROVAL_DATE_TIME ( #127, #152 ) ;
#46 = APPLICATION_PROTOCOL_DEFINITION ( 'international standard', 'config_control_design', 1994, #78 ) ;
#47 = CIRCLE ( 'NONE', #69, 1.499999999999999778 ) ;
#48 = PERSON_AND_ORGANIZATION_ROLE ( 'creator' ) ;
#49 = CC_DESIGN_PERSON_AND_ORGANIZATION_ASSIGNMENT ( #80, #175, ( #34 ) ) ;
#50 = PERSON_AND_ORGANIZATION ( #141, #167 ) ;
#51 = ADVANCED_FACE ( 'NONE', ( #54, #114 ), #128, .T. ) ;
#52 = EDGE_LOOP ( 'NONE', ( #133 ) ) ;
#53 = CC_DESIGN_DATE_AND_TIME_ASSIGNMENT ( #4, #187, ( #42 ) ) ;
#54 = FACE_BOUND ( 'NONE', #104, .T. ) ;
#55 = LOCAL_TIME ( 10, 13, 5.000000000000000000, #95 ) ;
#56 = DIRECTION ( 'NONE',  ( 0.0000000000000000000, 1.000000000000000000, 0.0000000000000000000 ) ) ;
#57 = CARTESIAN_POINT ( 'NONE',  ( -8.552847072295026068E-47, 1.499999999999999556, 0.0000000000000000000 ) ) ;
#58 = DIRECTION ( 'NONE',  ( 0.0000000000000000000, 1.000000000000000000, 0.0000000000000000000 ) ) ;
#59 = CARTESIAN_POINT ( 'NONE',  ( 1.047444401652940007E-13, 1.499999999999996225, 30.00000000000000000 ) ) ;
#60 = CIRCLE ( 'NONE', #3, 1.499999999999999556 ) ;
#61 = DIRECTION ( 'NONE',  ( -3.491481338843133355E-15, 1.224646799147353207E-16, -1.000000000000000000 ) ) ;
#62 = CALENDAR_DATE ( 2021, 9, 11 ) ;
#63 = PERSON_AND_ORGANIZATION ( #141, #167 ) ;
#64 = CALENDAR_DATE ( 2021, 9, 11 ) ;
#65 = DESIGN_CONTEXT ( 'detailed design', #99, 'design' ) ;
#66 = APPROVAL ( #31, 'UNSPECIFIED' ) ;
#67 = EDGE_LOOP ( 'NONE', ( #195 ) ) ;
#68 = ORIENTED_EDGE ( 'NONE', *, *, #122, .F. ) ;
#69 = AXIS2_PLACEMENT_3D ( 'NONE', #140, #74, #106 ) ;
#70 = APPROVAL ( #44, 'UNSPECIFIED' ) ;
#71 = CARTESIAN_POINT ( 'NONE',  ( 0.0000000000000000000, 0.0000000000000000000, 0.0000000000000000000 ) ) ;
#72 = ADVANCED_BREP_SHAPE_REPRESENTATION ( '60231', ( #94, #88, #38 ), #143 ) ;
#73 = CC_DESIGN_PERSON_AND_ORGANIZATION_ASSIGNMENT ( #129, #97, ( #20 ) ) ;
#74 = DIRECTION ( 'NONE',  ( -3.491481338843133355E-15, 1.224646799147353207E-16, -1.000000000000000000 ) ) ;
#75 = CARTESIAN_POINT ( 'NONE',  ( 1.047444401652940007E-13, 1.124819836996387869E-32, 30.00000000000000000 ) ) ;
#76 = DIRECTION ( 'NONE',  ( 4.275831445896958607E-31, 1.000000000000000000, 1.224646799147353207E-16 ) ) ;
#77 = APPROVAL_DATE_TIME ( #14, #70 ) ;
#78 = APPLICATION_CONTEXT ( 'configuration controlled 3d designs of mechanical parts and assemblies' ) ;
#79 = PERSON_AND_ORGANIZATION ( #141, #167 ) ;
#80 = PERSON_AND_ORGANIZATION ( #141, #167 ) ;
#81 = COORDINATED_UNIVERSAL_TIME_OFFSET ( 1, 0, .AHEAD. ) ;
#82 = DIRECTION ( 'NONE',  ( -3.491481338843133355E-15, 1.224646799147353207E-16, -1.000000000000000000 ) ) ;
#83 = CLOSED_SHELL ( 'NONE', ( #166, #158, #51, #115 ) ) ;
#84 = EDGE_LOOP ( 'NONE', ( #131 ) ) ;
#85 = EDGE_LOOP ( 'NONE', ( #102 ) ) ;
#86 = AXIS2_PLACEMENT_3D ( 'NONE', #156, #26, #76 ) ;
#87 = CARTESIAN_POINT ( 'NONE',  ( 2.084414359289350802E-13, -7.311141390909699073E-15, 59.70000000000000284 ) ) ;
#88 = MANIFOLD_SOLID_BREP ( 'Corps-Déplacer/Copier1[2]', #29 ) ;
#89 = CARTESIAN_POINT ( 'NONE',  ( -3.206873584422718517E-31, 1.124819836996392932E-32, -9.184850993605147205E-17 ) ) ;
#90 = DIRECTION ( 'NONE',  ( 3.491481338843133355E-15, -1.224646799147353207E-16, 1.000000000000000000 ) ) ;
#91 = AXIS2_PLACEMENT_3D ( 'NONE', #11, #138, #201 ) ;
#92 = DIRECTION ( 'NONE',  ( 4.275831445896958607E-31, 1.000000000000000000, 1.224646799147353207E-16 ) ) ;
#93 = PLANE ( 'NONE',  #86 ) ;
#94 = MANIFOLD_SOLID_BREP ( 'Corps-Déplacer/Copier1[1]', #83 ) ;
#95 = COORDINATED_UNIVERSAL_TIME_OFFSET ( 1, 0, .AHEAD. ) ;
#96 = CIRCLE ( 'NONE', #172, 1.200000000000007061 ) ;
#97 = PERSON_AND_ORGANIZATION_ROLE ( 'design_owner' ) ;
#98 = APPLICATION_PROTOCOL_DEFINITION ( 'international standard', 'config_control_design', 1994, #99 ) ;
#99 = APPLICATION_CONTEXT ( 'configuration controlled 3d designs of mechanical parts and assemblies' ) ;
#100 = PERSON_AND_ORGANIZATION_ROLE ( 'classification_officer' ) ;
#101 = ORIENTED_EDGE ( 'NONE', *, *, #197, .T. ) ;
#102 = ORIENTED_EDGE ( 'NONE', *, *, #137, .F. ) ;
#103 = AXIS2_PLACEMENT_3D ( 'NONE', #124, #61, #200 ) ;
#104 = EDGE_LOOP ( 'NONE', ( #101 ) ) ;
#105 = VERTEX_POINT ( 'NONE', #57 ) ;
#106 = DIRECTION ( 'NONE',  ( 0.0000000000000000000, 1.000000000000000000, 0.0000000000000000000 ) ) ;
#107 = FACE_OUTER_BOUND ( 'NONE', #21, .T. ) ;
#108 = VERTEX_POINT ( 'NONE', #37 ) ;
#109 = APPROVAL_ROLE ( '' ) ;
#110 = DIRECTION ( 'NONE',  ( 1.000000000000000000, 0.0000000000000000000, 0.0000000000000000000 ) ) ;
#111 = ADVANCED_FACE ( 'NONE', ( #118 ), #180, .T. ) ;
#112 = CARTESIAN_POINT ( 'NONE',  ( 0.0000000000000000000, 0.0000000000000000000, 0.0000000000000000000 ) ) ;
#113 = PERSON_AND_ORGANIZATION_ROLE ( 'design_supplier' ) ;
#114 = FACE_OUTER_BOUND ( 'NONE', #85, .T. ) ;
#115 = ADVANCED_FACE ( 'NONE', ( #13 ), #93, .F. ) ;
#116 = ORIENTED_EDGE ( 'NONE', *, *, #197, .F. ) ;
#117 = AXIS2_PLACEMENT_3D ( 'NONE', #87, #40, #183 ) ;
#118 = FACE_OUTER_BOUND ( 'NONE', #9, .T. ) ;
#119 = CYLINDRICAL_SURFACE ( 'NONE', #22, 1.499999999999999556 ) ;
#120 = CC_DESIGN_APPROVAL ( #66, ( #12 ) ) ;
#121 =( NAMED_UNIT ( * ) PLANE_ANGLE_UNIT ( ) SI_UNIT ( $, .RADIAN. ) );
#122 = EDGE_CURVE ( 'NONE', #108, #108, #47, .T. ) ;
#123 = DIRECTION ( 'NONE',  ( -3.491481338843133355E-15, 1.224646799147353207E-16, -1.000000000000000000 ) ) ;
#124 = CARTESIAN_POINT ( 'NONE',  ( 0.0000000000000000000, 0.0000000000000000000, 0.0000000000000000000 ) ) ;
#125 = MECHANICAL_CONTEXT ( 'NONE', #78, 'mechanical' ) ;
#126 = CC_DESIGN_PERSON_AND_ORGANIZATION_ASSIGNMENT ( #146, #113, ( #12 ) ) ;
#127 = DATE_AND_TIME ( #64, #17 ) ;
#128 = CONICAL_SURFACE ( 'NONE', #25, 1.499999999999998224, 0.7853981633974425058 ) ;
#129 = PERSON_AND_ORGANIZATION ( #141, #167 ) ;
#130 = APPROVAL_DATE_TIME ( #160, #66 ) ;
#131 = ORIENTED_EDGE ( 'NONE', *, *, #6, .T. ) ;
#132 = EDGE_LOOP ( 'NONE', ( #19 ) ) ;
#133 = ORIENTED_EDGE ( 'NONE', *, *, #154, .F. ) ;
#134 = CARTESIAN_POINT ( 'NONE',  ( 2.094888803305880013E-13, -7.347880794884118356E-15, 60.00000000000000000 ) ) ;
#135 = PLANE ( 'NONE',  #91 ) ;
#136 = AXIS2_PLACEMENT_3D ( 'NONE', #89, #123, #92 ) ;
#137 = EDGE_CURVE ( 'NONE', #198, #198, #30, .T. ) ;
#138 = DIRECTION ( 'NONE',  ( 3.491481338843133355E-15, -1.224646799147353207E-16, 1.000000000000000000 ) ) ;
#139 = ADVANCED_FACE ( 'NONE', ( #173, #27 ), #119, .T. ) ;
#140 = CARTESIAN_POINT ( 'NONE',  ( 1.047444401652940007E-13, -3.673940397442059178E-15, 30.00000000000000000 ) ) ;
#141 = PERSON ( 'UNSPECIFIED', 'UNSPECIFIED', 'UNSPECIFIED', ('UNSPECIFIED'), ('UNSPECIFIED'), ('UNSPECIFIED') ) ;
#142 = DIRECTION ( 'NONE',  ( -3.491481338843133355E-15, 1.224646799147353207E-16, -1.000000000000000000 ) ) ;
#143 =( GEOMETRIC_REPRESENTATION_CONTEXT ( 3 ) GLOBAL_UNCERTAINTY_ASSIGNED_CONTEXT ( ( #150 ) ) GLOBAL_UNIT_ASSIGNED_CONTEXT ( ( #169, #121, #189 ) ) REPRESENTATION_CONTEXT ( 'NONE', 'WORKASPACE' ) );
#144 = SHAPE_DEFINITION_REPRESENTATION ( #163, #72 ) ;
#145 = DIRECTION ( 'NONE',  ( 0.0000000000000000000, 0.0000000000000000000, 1.000000000000000000 ) ) ;
#146 = PERSON_AND_ORGANIZATION ( #141, #167 ) ;
#147 = LOCAL_TIME ( 10, 13, 5.000000000000000000, #1 ) ;
#148 = CALENDAR_DATE ( 2021, 9, 11 ) ;
#149 = CC_DESIGN_PERSON_AND_ORGANIZATION_ASSIGNMENT ( #50, #100, ( #42 ) ) ;
#150 = UNCERTAINTY_MEASURE_WITH_UNIT (LENGTH_MEASURE( 1.000000000000000082E-05 ), #169, 'distance_accuracy_value', 'NONE');
#151 = CC_DESIGN_SECURITY_CLASSIFICATION ( #42, ( #12 ) ) ;
#152 = APPROVAL ( #16, 'UNSPECIFIED' ) ;
#153 = CYLINDRICAL_SURFACE ( 'NONE', #103, 1.499999999999999112 ) ;
#154 = EDGE_CURVE ( 'NONE', #105, #105, #60, .T. ) ;
#155 = DIRECTION ( 'NONE',  ( 4.275831445896958607E-31, 1.000000000000000000, 1.224646799147353207E-16 ) ) ;
#156 = CARTESIAN_POINT ( 'NONE',  ( 2.094888803305880013E-13, 8.998558695971088172E-33, 60.00000000000000000 ) ) ;
#157 = CALENDAR_DATE ( 2021, 9, 11 ) ;
#158 = ADVANCED_FACE ( 'NONE', ( #23, #168 ), #153, .T. ) ;
#159 = DATE_AND_TIME ( #174, #147 ) ;
#160 = DATE_AND_TIME ( #62, #192 ) ;
#161 = ADVANCED_FACE ( 'NONE', ( #107 ), #185, .T. ) ;
#162 = LOCAL_TIME ( 10, 13, 5.000000000000000000, #5 ) ;
#163 = PRODUCT_DEFINITION_SHAPE ( 'NONE', 'NONE',  #34 ) ;
#164 = EDGE_LOOP ( 'NONE', ( #116 ) ) ;
#165 = CARTESIAN_POINT ( 'NONE',  ( 2.084414359289350802E-13, -7.311141390909699073E-15, 59.70000000000000284 ) ) ;
#166 = ADVANCED_FACE ( 'NONE', ( #43 ), #135, .F. ) ;
#167 = ORGANIZATION ( 'UNSPECIFIED', 'UNSPECIFIED', '' ) ;
#168 = FACE_OUTER_BOUND ( 'NONE', #8, .T. ) ;
#169 =( LENGTH_UNIT ( ) NAMED_UNIT ( * ) SI_UNIT ( .MILLI., .METRE. ) );
#170 = CARTESIAN_POINT ( 'NONE',  ( -6.413747168845437034E-31, 2.249639673992785864E-32, -1.836970198721029441E-16 ) ) ;
#171 = CARTESIAN_POINT ( 'NONE',  ( 2.084414359289350802E-13, 1.499999999999990896, 59.70000000000000284 ) ) ;
#172 = AXIS2_PLACEMENT_3D ( 'NONE', #134, #182, #58 ) ;
#173 = FACE_OUTER_BOUND ( 'NONE', #84, .T. ) ;
#174 = CALENDAR_DATE ( 2021, 9, 11 ) ;
#175 = PERSON_AND_ORGANIZATION_ROLE ( 'creator' ) ;
#176 = CC_DESIGN_DATE_AND_TIME_ASSIGNMENT ( #159, #15, ( #34 ) ) ;
#177 = APPROVAL_PERSON_ORGANIZATION ( #63, #152, #188 ) ;
#178 = ORIENTED_EDGE ( 'NONE', *, *, #154, .T. ) ;
#179 = CC_DESIGN_PERSON_AND_ORGANIZATION_ASSIGNMENT ( #79, #48, ( #12 ) ) ;
#180 = PLANE ( 'NONE',  #136 ) ;
#181 = AXIS2_PLACEMENT_3D ( 'NONE', #75, #90, #41 ) ;
#182 = DIRECTION ( 'NONE',  ( -3.491481338843133355E-15, 1.224646799147353207E-16, -1.000000000000000000 ) ) ;
#183 = DIRECTION ( 'NONE',  ( 0.0000000000000000000, 1.000000000000000000, 0.0000000000000000000 ) ) ;
#184 = VERTEX_POINT ( 'NONE', #59 ) ;
#185 = PLANE ( 'NONE',  #181 ) ;
#186 = APPROVAL_PERSON_ORGANIZATION ( #2, #66, #28 ) ;
#187 = DATE_TIME_ROLE ( 'classification_date' ) ;
#188 = APPROVAL_ROLE ( '' ) ;
#189 =( NAMED_UNIT ( * ) SI_UNIT ( $, .STERADIAN. ) SOLID_ANGLE_UNIT ( ) );
#190 = CIRCLE ( 'NONE', #10, 1.499999999999999778 ) ;
#191 = PERSON_AND_ORGANIZATION ( #141, #167 ) ;
#192 = LOCAL_TIME ( 10, 13, 5.000000000000000000, #18 ) ;
#193 = ORIENTED_EDGE ( 'NONE', *, *, #6, .F. ) ;
#194 = CARTESIAN_POINT ( 'NONE',  ( 1.047444401652940007E-13, -3.673940397442059178E-15, 30.00000000000000000 ) ) ;
#195 = ORIENTED_EDGE ( 'NONE', *, *, #137, .T. ) ;
#196 = DIRECTION ( 'NONE',  ( -3.491481338843133355E-15, 1.224646799147353207E-16, -1.000000000000000000 ) ) ;
#197 = EDGE_CURVE ( 'NONE', #39, #39, #96, .T. ) ;
#198 = VERTEX_POINT ( 'NONE', #171 ) ;
#199 = CARTESIAN_POINT ( 'NONE',  ( 2.094888803305880013E-13, 1.199999999999999734, 60.00000000000000000 ) ) ;
#200 = DIRECTION ( 'NONE',  ( 4.275831445896958607E-31, 1.000000000000000000, 1.224646799147353454E-16 ) ) ;
#201 = DIRECTION ( 'NONE',  ( -4.275831445896958607E-31, -1.000000000000000000, -1.224646799147353207E-16 ) ) ;
#202 = PRODUCT_RELATED_PRODUCT_CATEGORY ( 'detail', '', ( #20 ) ) ;
#203 = DIRECTION ( 'NONE',  ( 4.275831445896958607E-31, 1.000000000000000000, 1.224646799147353207E-16 ) ) ;
ENDSEC;
END-ISO-10303-21;
