ISO-10303-21;
HEADER;
FILE_DESCRIPTION (( 'STEP AP203' ),
    '1' );
FILE_NAME ('60201.step',
    '2021-11-01T10:35:27',
    ( '' ),
    ( '' ),
    'SwSTEP 2.0',
    'SolidWorks 2019',
    '' );
FILE_SCHEMA (( 'CONFIG_CONTROL_DESIGN' ));
ENDSEC;

DATA;
#1 = DIRECTION ( 'NONE',  ( -3.491481338843133355E-15, 1.224646799147353207E-16, -1.000000000000000000 ) ) ;
#2 = VERTEX_POINT ( 'NONE', #202 ) ;
#3 = PERSON_AND_ORGANIZATION_ROLE ( 'creator' ) ;
#4 = AXIS2_PLACEMENT_3D ( 'NONE', #208, #1, #201 ) ;
#5 = PERSON_AND_ORGANIZATION ( #151, #133 ) ;
#6 = COORDINATED_UNIVERSAL_TIME_OFFSET ( 1, 0, .AHEAD. ) ;
#7 = AXIS2_PLACEMENT_3D ( 'NONE', #189, #87, #135 ) ;
#8 = AXIS2_PLACEMENT_3D ( 'NONE', #209, #52, #47 ) ;
#9 = EDGE_LOOP ( 'NONE', ( #45 ) ) ;
#10 = ORIENTED_EDGE ( 'NONE', *, *, #215, .F. ) ;
#11 = FACE_BOUND ( 'NONE', #42, .T. ) ;
#12 = VERTEX_POINT ( 'NONE', #148 ) ;
#13 = MECHANICAL_CONTEXT ( 'NONE', #125, 'mechanical' ) ;
#14 = DIRECTION ( 'NONE',  ( -3.491481338843133355E-15, 1.224646799147353207E-16, -1.000000000000000000 ) ) ;
#15 = CARTESIAN_POINT ( 'NONE',  ( 1.466422162314116009E-14, -0.7000000000000002887, 4.200000000000000178 ) ) ;
#16 = CYLINDRICAL_SURFACE ( 'NONE', #44, 0.6999999999999996225 ) ;
#17 = CC_DESIGN_DATE_AND_TIME_ASSIGNMENT ( #19, #75, ( #77 ) ) ;
#18 =( NAMED_UNIT ( * ) SI_UNIT ( $, .STERADIAN. ) SOLID_ANGLE_UNIT ( ) );
#19 = DATE_AND_TIME ( #141, #204 ) ;
#20 = CIRCLE ( 'NONE', #48, 0.6999999999999997335 ) ;
#21 = PERSON_AND_ORGANIZATION ( #151, #133 ) ;
#22 = APPROVAL_DATE_TIME ( #175, #176 ) ;
#23 = ADVANCED_BREP_SHAPE_REPRESENTATION ( '60201', ( #24, #104, #103 ), #174 ) ;
#24 = MANIFOLD_SOLID_BREP ( 'Corps-Déplacer/Copier1[1]', #76 ) ;
#25 = PERSON_AND_ORGANIZATION ( #151, #133 ) ;
#26 = ORIENTED_EDGE ( 'NONE', *, *, #197, .T. ) ;
#27 = AXIS2_PLACEMENT_3D ( 'NONE', #170, #97, #81 ) ;
#28 = CC_DESIGN_PERSON_AND_ORGANIZATION_ASSIGNMENT ( #91, #39, ( #61 ) ) ;
#29 = PLANE ( 'NONE',  #157 ) ;
#30 = DIRECTION ( 'NONE',  ( 0.0000000000000000000, 0.0000000000000000000, 1.000000000000000000 ) ) ;
#31 = DIRECTION ( 'NONE',  ( -3.491481338843133355E-15, 1.227517819005651059E-16, -1.000000000000000000 ) ) ;
#32 = CC_DESIGN_PERSON_AND_ORGANIZATION_ASSIGNMENT ( #25, #3, ( #72 ) ) ;
#33 = CARTESIAN_POINT ( 'NONE',  ( 1.326762908760390423E-13, -4.653657836759941941E-15, 38.00000000000000000 ) ) ;
#34 =( NAMED_UNIT ( * ) PLANE_ANGLE_UNIT ( ) SI_UNIT ( $, .RADIAN. ) );
#35 = DIRECTION ( 'NONE',  ( 3.491481338843133355E-15, -1.224646799147353207E-16, 1.000000000000000000 ) ) ;
#36 = SHAPE_DEFINITION_REPRESENTATION ( #186, #23 ) ;
#37 = PRODUCT_RELATED_PRODUCT_CATEGORY ( 'detail', '', ( #144 ) ) ;
#38 = LOCAL_TIME ( 11, 35, 27.00000000000000000, #172 ) ;
#39 = PERSON_AND_ORGANIZATION_ROLE ( 'design_supplier' ) ;
#40 = APPROVAL ( #210, 'UNSPECIFIED' ) ;
#41 = VERTEX_POINT ( 'NONE', #180 ) ;
#42 = EDGE_LOOP ( 'NONE', ( #158 ) ) ;
#43 = EDGE_LOOP ( 'NONE', ( #112 ) ) ;
#44 = AXIS2_PLACEMENT_3D ( 'NONE', #136, #149, #117 ) ;
#45 = ORIENTED_EDGE ( 'NONE', *, *, #146, .F. ) ;
#46 = PLANE ( 'NONE',  #212 ) ;
#47 = DIRECTION ( 'NONE',  ( 0.0000000000000000000, 1.000000000000000000, 0.0000000000000000000 ) ) ;
#48 = AXIS2_PLACEMENT_3D ( 'NONE', #80, #70, #100 ) ;
#49 =( LENGTH_UNIT ( ) NAMED_UNIT ( * ) SI_UNIT ( .MILLI., .METRE. ) );
#50 = PLANE ( 'NONE',  #27 ) ;
#51 = DIRECTION ( 'NONE',  ( -3.491481338843133355E-15, 1.224646799147353207E-16, -1.000000000000000000 ) ) ;
#52 = DIRECTION ( 'NONE',  ( -3.491481338843133355E-15, 1.224646799147353207E-16, -1.000000000000000000 ) ) ;
#53 = PERSON_AND_ORGANIZATION_ROLE ( 'design_owner' ) ;
#54 = VERTEX_POINT ( 'NONE', #184 ) ;
#55 = APPROVAL_DATE_TIME ( #178, #216 ) ;
#56 = APPROVAL_DATE_TIME ( #108, #40 ) ;
#57 = COORDINATED_UNIVERSAL_TIME_OFFSET ( 1, 0, .AHEAD. ) ;
#58 = CC_DESIGN_PERSON_AND_ORGANIZATION_ASSIGNMENT ( #167, #53, ( #144 ) ) ;
#59 = CALENDAR_DATE ( 2021, 1, 11 ) ;
#60 = EDGE_LOOP ( 'NONE', ( #163 ) ) ;
#61 = PRODUCT_DEFINITION_FORMATION_WITH_SPECIFIED_SOURCE ( 'ANY', '', #144, .NOT_KNOWN. ) ;
#62 = VERTEX_POINT ( 'NONE', #15 ) ;
#63 = FACE_OUTER_BOUND ( 'NONE', #43, .T. ) ;
#64 = CIRCLE ( 'NONE', #8, 1.499999999999996669 ) ;
#65 = ADVANCED_FACE ( 'NONE', ( #63 ), #115, .F. ) ;
#66 = CARTESIAN_POINT ( 'NONE',  ( 1.466422162314116325E-14, 1.124819836996387048E-32, 4.200000000000000178 ) ) ;
#67 = DIRECTION ( 'NONE',  ( -4.275831445896958607E-31, -1.000000000000000000, -1.224646799147353207E-16 ) ) ;
#68 = CC_DESIGN_SECURITY_CLASSIFICATION ( #77, ( #61 ) ) ;
#69 = APPROVAL_STATUS ( 'not_yet_approved' ) ;
#70 = DIRECTION ( 'NONE',  ( 3.491481338843133355E-15, -1.227517819005651059E-16, 1.000000000000000000 ) ) ;
#71 = FACE_OUTER_BOUND ( 'NONE', #60, .T. ) ;
#72 = PRODUCT_DEFINITION ( 'UNKNOWN', '', #61, #126 ) ;
#73 = ADVANCED_FACE ( 'NONE', ( #105, #122 ), #102, .F. ) ;
#74 = CIRCLE ( 'NONE', #118, 1.499999999999994893 ) ;
#75 = DATE_TIME_ROLE ( 'classification_date' ) ;
#76 = CLOSED_SHELL ( 'NONE', ( #173, #114, #65, #73, #155 ) ) ;
#77 = SECURITY_CLASSIFICATION ( '', '', #127 ) ;
#78 = EDGE_LOOP ( 'NONE', ( #161 ) ) ;
#79 = EDGE_LOOP ( 'NONE', ( #116 ) ) ;
#80 = CARTESIAN_POINT ( 'NONE',  ( 1.466422162314116009E-14, -5.155574839823733756E-16, 4.200000000000000178 ) ) ;
#81 = DIRECTION ( 'NONE',  ( -4.275831445896958607E-31, -1.000000000000000000, -1.224646799147353207E-16 ) ) ;
#82 = DIRECTION ( 'NONE',  ( 0.0000000000000000000, 1.000000000000000000, 0.0000000000000000000 ) ) ;
#83 = CARTESIAN_POINT ( 'NONE',  ( 1.466422162314116009E-14, -0.7000000000000002887, 4.200000000000000178 ) ) ;
#84 = FACE_OUTER_BOUND ( 'NONE', #218, .T. ) ;
#85 = CIRCLE ( 'NONE', #7, 1.199999999999995959 ) ;
#86 = CC_DESIGN_APPROVAL ( #216, ( #72 ) ) ;
#87 = DIRECTION ( 'NONE',  ( -3.491481338843133355E-15, 1.224646799147353207E-16, -1.000000000000000000 ) ) ;
#88 = CALENDAR_DATE ( 2021, 1, 11 ) ;
#89 = CC_DESIGN_PERSON_AND_ORGANIZATION_ASSIGNMENT ( #139, #110, ( #61 ) ) ;
#90 = APPROVAL_ROLE ( '' ) ;
#91 = PERSON_AND_ORGANIZATION ( #151, #133 ) ;
#92 = ORIENTED_EDGE ( 'NONE', *, *, #215, .T. ) ;
#93 = CC_DESIGN_PERSON_AND_ORGANIZATION_ASSIGNMENT ( #21, #124, ( #77 ) ) ;
#94 = ORIENTED_EDGE ( 'NONE', *, *, #146, .T. ) ;
#95 = APPROVAL_PERSON_ORGANIZATION ( #211, #40, #90 ) ;
#96 = EDGE_LOOP ( 'NONE', ( #94 ) ) ;
#97 = DIRECTION ( 'NONE',  ( 3.491481338843133355E-15, -1.224646799147353207E-16, 1.000000000000000000 ) ) ;
#98 = FACE_OUTER_BOUND ( 'NONE', #9, .T. ) ;
#99 = DIRECTION ( 'NONE',  ( 1.000000000000000000, 0.0000000000000000000, 0.0000000000000000000 ) ) ;
#100 = DIRECTION ( 'NONE',  ( 0.0000000000000000000, -1.000000000000000000, 0.0000000000000000000 ) ) ;
#101 = CARTESIAN_POINT ( 'NONE',  ( -8.551680453529350800E-31, 2.999525725151307090E-32, -2.449298628175645296E-16 ) ) ;
#102 = TOROIDAL_SURFACE ( 'NONE', #132, 8.699999999999999289, 8.000000000000000000 ) ;
#103 = AXIS2_PLACEMENT_3D ( 'NONE', #222, #30, #99 ) ;
#104 = MANIFOLD_SOLID_BREP ( 'Corps-Déplacer/Copier1[2]', #140 ) ;
#105 = FACE_OUTER_BOUND ( 'NONE', #128, .T. ) ;
#106 = APPLICATION_PROTOCOL_DEFINITION ( 'international standard', 'config_control_design', 1994, #125 ) ;
#107 = COORDINATED_UNIVERSAL_TIME_OFFSET ( 1, 0, .AHEAD. ) ;
#108 = DATE_AND_TIME ( #192, #193 ) ;
#109 = APPROVAL_PERSON_ORGANIZATION ( #5, #176, #191 ) ;
#110 = PERSON_AND_ORGANIZATION_ROLE ( 'creator' ) ;
#111 = EDGE_CURVE ( 'NONE', #12, #12, #85, .T. ) ;
#112 = ORIENTED_EDGE ( 'NONE', *, *, #111, .F. ) ;
#113 = CONICAL_SURFACE ( 'NONE', #154, 1.199999999999995959, 0.7853981633974468357 ) ;
#114 = ADVANCED_FACE ( 'NONE', ( #152, #11 ), #113, .T. ) ;
#115 = PLANE ( 'NONE',  #203 ) ;
#116 = ORIENTED_EDGE ( 'NONE', *, *, #206, .F. ) ;
#117 = DIRECTION ( 'NONE',  ( -4.285855558155652404E-31, -1.000000000000000000, -1.227517819005651305E-16 ) ) ;
#118 = AXIS2_PLACEMENT_3D ( 'NONE', #205, #31, #82 ) ;
#119 = CARTESIAN_POINT ( 'NONE',  ( 1.466422162314116009E-14, -5.155574839823733756E-16, 4.200000000000000178 ) ) ;
#120 = CARTESIAN_POINT ( 'NONE',  ( 1.466422162314116009E-14, 0.0000000000000000000, 4.200000000000000178 ) ) ;
#121 = APPLICATION_PROTOCOL_DEFINITION ( 'international standard', 'config_control_design', 1994, #134 ) ;
#122 = FACE_OUTER_BOUND ( 'NONE', #96, .T. ) ;
#123 = CARTESIAN_POINT ( 'NONE',  ( -3.000098890708957120E-31, -1.200148268103258810E-32, -8.592624733039556671E-17 ) ) ;
#124 = PERSON_AND_ORGANIZATION_ROLE ( 'classification_officer' ) ;
#125 = APPLICATION_CONTEXT ( 'configuration controlled 3d designs of mechanical parts and assemblies' ) ;
#126 = DESIGN_CONTEXT ( 'detailed design', #134, 'design' ) ;
#127 = SECURITY_CLASSIFICATION_LEVEL ( 'unclassified' ) ;
#128 = EDGE_LOOP ( 'NONE', ( #92 ) ) ;
#129 = APPROVAL_PERSON_ORGANIZATION ( #153, #216, #207 ) ;
#130 = DIRECTION ( 'NONE',  ( 3.491481338843133355E-15, -1.227517819005651059E-16, 1.000000000000000000 ) ) ;
#131 = CYLINDRICAL_SURFACE ( 'NONE', #4, 1.499999999999994893 ) ;
#132 = AXIS2_PLACEMENT_3D ( 'NONE', #120, #221, #223 ) ;
#133 = ORGANIZATION ( 'UNSPECIFIED', 'UNSPECIFIED', '' ) ;
#134 = APPLICATION_CONTEXT ( 'configuration controlled 3d designs of mechanical parts and assemblies' ) ;
#135 = DIRECTION ( 'NONE',  ( 0.0000000000000000000, 1.000000000000000000, 0.0000000000000000000 ) ) ;
#136 = CARTESIAN_POINT ( 'NONE',  ( -6.413731847436034514E-31, 0.0000000000000000000, -1.836965810494968570E-16 ) ) ;
#137 = CALENDAR_DATE ( 2021, 1, 11 ) ;
#138 = ADVANCED_FACE ( 'NONE', ( #188 ), #46, .F. ) ;
#139 = PERSON_AND_ORGANIZATION ( #151, #133 ) ;
#140 = CLOSED_SHELL ( 'NONE', ( #195, #169, #138 ) ) ;
#141 = CALENDAR_DATE ( 2021, 1, 11 ) ;
#142 = AXIS2_PLACEMENT_3D ( 'NONE', #119, #187, #165 ) ;
#143 = ORIENTED_EDGE ( 'NONE', *, *, #206, .T. ) ;
#144 = PRODUCT ( '60201', '60201', '', ( #13 ) ) ;
#145 = DIRECTION ( 'NONE',  ( -4.275831445896958607E-31, -1.000000000000000000, -1.224646799147353207E-16 ) ) ;
#146 = EDGE_CURVE ( 'NONE', #41, #41, #74, .T. ) ;
#147 = FACE_OUTER_BOUND ( 'NONE', #78, .T. ) ;
#148 = CARTESIAN_POINT ( 'NONE',  ( 1.326762908760390423E-13, 1.199999999999991518, 38.00000000000000000 ) ) ;
#149 = DIRECTION ( 'NONE',  ( 3.491481338843133355E-15, -1.227517819005651059E-16, 1.000000000000000000 ) ) ;
#150 = VERTEX_POINT ( 'NONE', #83 ) ;
#151 = PERSON ( 'UNSPECIFIED', 'UNSPECIFIED', 'UNSPECIFIED', ('UNSPECIFIED'), ('UNSPECIFIED'), ('UNSPECIFIED') ) ;
#152 = FACE_OUTER_BOUND ( 'NONE', #179, .T. ) ;
#153 = PERSON_AND_ORGANIZATION ( #151, #133 ) ;
#154 = AXIS2_PLACEMENT_3D ( 'NONE', #33, #14, #164 ) ;
#155 = ADVANCED_FACE ( 'NONE', ( #84 ), #50, .F. ) ;
#156 = COORDINATED_UNIVERSAL_TIME_OFFSET ( 1, 0, .AHEAD. ) ;
#157 = AXIS2_PLACEMENT_3D ( 'NONE', #66, #183, #145 ) ;
#158 = ORIENTED_EDGE ( 'NONE', *, *, #111, .T. ) ;
#159 = LOCAL_TIME ( 11, 35, 27.00000000000000000, #57 ) ;
#160 = EDGE_CURVE ( 'NONE', #62, #62, #20, .T. ) ;
#161 = ORIENTED_EDGE ( 'NONE', *, *, #160, .F. ) ;
#162 = CARTESIAN_POINT ( 'NONE',  ( 1.326762908760390423E-13, 8.998558695971047118E-33, 38.00000000000000000 ) ) ;
#163 = ORIENTED_EDGE ( 'NONE', *, *, #160, .T. ) ;
#164 = DIRECTION ( 'NONE',  ( 0.0000000000000000000, 1.000000000000000000, 0.0000000000000000000 ) ) ;
#165 = DIRECTION ( 'NONE',  ( 0.0000000000000000000, -1.000000000000000000, 0.0000000000000000000 ) ) ;
#166 = UNCERTAINTY_MEASURE_WITH_UNIT (LENGTH_MEASURE( 1.000000000000000082E-05 ), #49, 'distance_accuracy_value', 'NONE');
#167 = PERSON_AND_ORGANIZATION ( #151, #133 ) ;
#168 = LOCAL_TIME ( 11, 35, 27.00000000000000000, #156 ) ;
#169 = ADVANCED_FACE ( 'NONE', ( #190, #147 ), #16, .T. ) ;
#170 = CARTESIAN_POINT ( 'NONE',  ( 1.466422162314116325E-14, 1.124819836996387048E-32, 4.200000000000000178 ) ) ;
#171 = DIRECTION ( 'NONE',  ( 4.275831445896958607E-31, 1.000000000000000000, 1.224646799147353207E-16 ) ) ;
#172 = COORDINATED_UNIVERSAL_TIME_OFFSET ( 1, 0, .AHEAD. ) ;
#173 = ADVANCED_FACE ( 'NONE', ( #220, #98 ), #131, .T. ) ;
#174 =( GEOMETRIC_REPRESENTATION_CONTEXT ( 3 ) GLOBAL_UNCERTAINTY_ASSIGNED_CONTEXT ( ( #166 ) ) GLOBAL_UNIT_ASSIGNED_CONTEXT ( ( #49, #34, #18 ) ) REPRESENTATION_CONTEXT ( 'NONE', 'WORKASPACE' ) );
#175 = DATE_AND_TIME ( #59, #159 ) ;
#176 = APPROVAL ( #194, 'UNSPECIFIED' ) ;
#177 = DATE_TIME_ROLE ( 'creation_date' ) ;
#178 = DATE_AND_TIME ( #88, #38 ) ;
#179 = EDGE_LOOP ( 'NONE', ( #196 ) ) ;
#180 = CARTESIAN_POINT ( 'NONE',  ( 2.683943307856137034E-14, 1.499999999999994449, 7.687119154832528167 ) ) ;
#181 = EDGE_LOOP ( 'NONE', ( #26 ) ) ;
#182 = CIRCLE ( 'NONE', #199, 0.6999999999999996225 ) ;
#183 = DIRECTION ( 'NONE',  ( 3.491481338843133355E-15, -1.224646799147353207E-16, 1.000000000000000000 ) ) ;
#184 = CARTESIAN_POINT ( 'NONE',  ( 1.316288464743861212E-13, 1.499999999999992228, 37.69999999999999574 ) ) ;
#185 = CC_DESIGN_APPROVAL ( #40, ( #61 ) ) ;
#186 = PRODUCT_DEFINITION_SHAPE ( 'NONE', 'NONE',  #72 ) ;
#187 = DIRECTION ( 'NONE',  ( 3.491481338843133355E-15, -1.227517819005651059E-16, 1.000000000000000000 ) ) ;
#188 = FACE_OUTER_BOUND ( 'NONE', #79, .T. ) ;
#189 = CARTESIAN_POINT ( 'NONE',  ( 1.326762908760390423E-13, -4.653657836759941941E-15, 38.00000000000000000 ) ) ;
#190 = FACE_OUTER_BOUND ( 'NONE', #198, .T. ) ;
#191 = APPROVAL_ROLE ( '' ) ;
#192 = CALENDAR_DATE ( 2021, 1, 11 ) ;
#193 = LOCAL_TIME ( 11, 35, 27.00000000000000000, #107 ) ;
#194 = APPROVAL_STATUS ( 'not_yet_approved' ) ;
#195 = ADVANCED_FACE ( 'NONE', ( #71 ), #29, .T. ) ;
#196 = ORIENTED_EDGE ( 'NONE', *, *, #197, .F. ) ;
#197 = EDGE_CURVE ( 'NONE', #54, #54, #64, .T. ) ;
#198 = EDGE_LOOP ( 'NONE', ( #143 ) ) ;
#199 = AXIS2_PLACEMENT_3D ( 'NONE', #123, #130, #200 ) ;
#200 = DIRECTION ( 'NONE',  ( -4.285855558155652404E-31, -1.000000000000000000, -1.227517819005651305E-16 ) ) ;
#201 = DIRECTION ( 'NONE',  ( 4.275831445896958607E-31, 1.000000000000000000, 1.224646799147353207E-16 ) ) ;
#202 = CARTESIAN_POINT ( 'NONE',  ( -6.000197781417912489E-31, -0.6999999999999996225, -1.718524946607911088E-16 ) ) ;
#203 = AXIS2_PLACEMENT_3D ( 'NONE', #162, #51, #171 ) ;
#204 = LOCAL_TIME ( 11, 35, 27.00000000000000000, #6 ) ;
#205 = CARTESIAN_POINT ( 'NONE',  ( 2.683943307856137034E-14, -4.280500899552853497E-16, 7.687119154832528167 ) ) ;
#206 = EDGE_CURVE ( 'NONE', #2, #2, #182, .T. ) ;
#207 = APPROVAL_ROLE ( '' ) ;
#208 = CARTESIAN_POINT ( 'NONE',  ( 0.0000000000000000000, 0.0000000000000000000, 0.0000000000000000000 ) ) ;
#209 = CARTESIAN_POINT ( 'NONE',  ( 1.316288464743861212E-13, -4.616918432785521081E-15, 37.69999999999999574 ) ) ;
#210 = APPROVAL_STATUS ( 'not_yet_approved' ) ;
#211 = PERSON_AND_ORGANIZATION ( #151, #133 ) ;
#212 = AXIS2_PLACEMENT_3D ( 'NONE', #101, #35, #67 ) ;
#213 = CC_DESIGN_APPROVAL ( #176, ( #77 ) ) ;
#214 = DATE_AND_TIME ( #137, #168 ) ;
#215 = EDGE_CURVE ( 'NONE', #150, #150, #217, .T. ) ;
#216 = APPROVAL ( #69, 'UNSPECIFIED' ) ;
#217 = CIRCLE ( 'NONE', #142, 0.6999999999999997335 ) ;
#218 = EDGE_LOOP ( 'NONE', ( #10 ) ) ;
#219 = CC_DESIGN_DATE_AND_TIME_ASSIGNMENT ( #214, #177, ( #72 ) ) ;
#220 = FACE_OUTER_BOUND ( 'NONE', #181, .T. ) ;
#221 = DIRECTION ( 'NONE',  ( 3.491481338843133355E-15, -1.227517819005651059E-16, 1.000000000000000000 ) ) ;
#222 = CARTESIAN_POINT ( 'NONE',  ( 0.0000000000000000000, 0.0000000000000000000, 0.0000000000000000000 ) ) ;
#223 = DIRECTION ( 'NONE',  ( -4.349461053732323178E-31, -1.000000000000000000, -1.227517819005651059E-16 ) ) ;
ENDSEC;
END-ISO-10303-21;
