ISO-10303-21;
HEADER;
FILE_DESCRIPTION (( 'STEP AP203' ),
    '1' );
FILE_NAME ('60126.step',
    '2021-11-01T09:45:59',
    ( '' ),
    ( '' ),
    'SwSTEP 2.0',
    'SolidWorks 2019',
    '' );
FILE_SCHEMA (( 'CONFIG_CONTROL_DESIGN' ));
ENDSEC;

DATA;
#1 = COORDINATED_UNIVERSAL_TIME_OFFSET ( 1, 0, .AHEAD. ) ;
#2 = DIRECTION ( 'NONE',  ( -4.275831445896958607E-31, -1.000000000000000000, -1.224646799147353207E-16 ) ) ;
#3 = DATE_TIME_ROLE ( 'classification_date' ) ;
#4 = DESIGN_CONTEXT ( 'detailed design', #116, 'design' ) ;
#5 = CARTESIAN_POINT ( 'NONE',  ( 1.047444401652940007E-14, 1.124819836996384174E-32, 3.000000000000000000 ) ) ;
#6 = APPROVAL_PERSON_ORGANIZATION ( #87, #72, #158 ) ;
#7 = AXIS2_PLACEMENT_3D ( 'NONE', #199, #232, #45 ) ;
#8 = APPLICATION_PROTOCOL_DEFINITION ( 'international standard', 'config_control_design', 1994, #116 ) ;
#9 = DIRECTION ( 'NONE',  ( -3.491481338843133355E-15, 1.224646799147353207E-16, -1.000000000000000000 ) ) ;
#10 = PERSON_AND_ORGANIZATION_ROLE ( 'creator' ) ;
#11 = CC_DESIGN_PERSON_AND_ORGANIZATION_ASSIGNMENT ( #105, #10, ( #239 ) ) ;
#12 = DATE_TIME_ROLE ( 'creation_date' ) ;
#13 = TOROIDAL_SURFACE ( 'NONE', #27, 2.299999999999999822, 2.000000000000000000 ) ;
#14 = ORIENTED_EDGE ( 'NONE', *, *, #215, .T. ) ;
#15 = ORIENTED_EDGE ( 'NONE', *, *, #84, .T. ) ;
#16 = CLOSED_SHELL ( 'NONE', ( #196, #89, #24, #162, #125, #203 ) ) ;
#17 = FACE_OUTER_BOUND ( 'NONE', #73, .T. ) ;
#18 = VERTEX_POINT ( 'NONE', #180 ) ;
#19 = PERSON_AND_ORGANIZATION_ROLE ( 'design_supplier' ) ;
#20 = ADVANCED_BREP_SHAPE_REPRESENTATION ( '60126', ( #108, #187, #69 ), #183 ) ;
#21 = EDGE_LOOP ( 'NONE', ( #218 ) ) ;
#22 = PERSON_AND_ORGANIZATION_ROLE ( 'classification_officer' ) ;
#23 = DIRECTION ( 'NONE',  ( 0.0000000000000000000, 1.000000000000000000, 0.0000000000000000000 ) ) ;
#24 = ADVANCED_FACE ( 'NONE', ( #207 ), #42, .F. ) ;
#25 = DIRECTION ( 'NONE',  ( 0.0000000000000000000, -1.000000000000000000, 0.0000000000000000000 ) ) ;
#26 = CC_DESIGN_SECURITY_CLASSIFICATION ( #35, ( #239 ) ) ;
#27 = AXIS2_PLACEMENT_3D ( 'NONE', #98, #228, #78 ) ;
#28 = CIRCLE ( 'NONE', #179, 0.3681483474218599228 ) ;
#29 = CARTESIAN_POINT ( 'NONE',  ( 1.228176774875465645E-14, -0.3681483474218603669, 3.517638090205028600 ) ) ;
#30 = APPROVAL_STATUS ( 'not_yet_approved' ) ;
#31 = FACE_OUTER_BOUND ( 'NONE', #164, .T. ) ;
#32 = CALENDAR_DATE ( 2021, 1, 11 ) ;
#33 = EDGE_LOOP ( 'NONE', ( #74 ) ) ;
#34 = APPROVAL ( #225, 'UNSPECIFIED' ) ;
#35 = SECURITY_CLASSIFICATION ( '', '', #41 ) ;
#36 = CIRCLE ( 'NONE', #50, 1.199999999999992184 ) ;
#37 = PERSON_AND_ORGANIZATION ( #146, #124 ) ;
#38 = FACE_OUTER_BOUND ( 'NONE', #188, .T. ) ;
#39 = PLANE ( 'NONE',  #129 ) ;
#40 = CONICAL_SURFACE ( 'NONE', #166, 1.199999999999992184, 0.7853981633974468357 ) ;
#41 = SECURITY_CLASSIFICATION_LEVEL ( 'unclassified' ) ;
#42 = PLANE ( 'NONE',  #230 ) ;
#43 = EDGE_CURVE ( 'NONE', #103, #103, #28, .T. ) ;
#44 = DIRECTION ( 'NONE',  ( 3.491481338843133355E-15, -1.219242935835426903E-16, 1.000000000000000000 ) ) ;
#45 = DIRECTION ( 'NONE',  ( 4.275831445896958607E-31, 1.000000000000000000, 1.224646799147353207E-16 ) ) ;
#46 = CIRCLE ( 'NONE', #198, 0.2999999999999999334 ) ;
#47 = CYLINDRICAL_SURFACE ( 'NONE', #102, 0.2999999999999999334 ) ;
#48 = CARTESIAN_POINT ( 'NONE',  ( 1.316288464743861212E-13, -4.616918432785521081E-15, 37.69999999999999574 ) ) ;
#49 = APPROVAL_ROLE ( '' ) ;
#50 = AXIS2_PLACEMENT_3D ( 'NONE', #94, #167, #150 ) ;
#51 = ORIENTED_EDGE ( 'NONE', *, *, #182, .F. ) ;
#52 =( LENGTH_UNIT ( ) NAMED_UNIT ( * ) SI_UNIT ( .MILLI., .METRE. ) );
#53 =( NAMED_UNIT ( * ) SI_UNIT ( $, .STERADIAN. ) SOLID_ANGLE_UNIT ( ) );
#54 = EDGE_LOOP ( 'NONE', ( #71 ) ) ;
#55 = DATE_AND_TIME ( #97, #173 ) ;
#56 = CIRCLE ( 'NONE', #91, 0.2999999999999998779 ) ;
#57 = ORIENTED_EDGE ( 'NONE', *, *, #43, .T. ) ;
#58 = DIRECTION ( 'NONE',  ( -3.491481338843133355E-15, 1.224646799147353207E-16, -1.000000000000000000 ) ) ;
#59 = FACE_BOUND ( 'NONE', #76, .T. ) ;
#60 = APPROVAL ( #30, 'UNSPECIFIED' ) ;
#61 = PLANE ( 'NONE',  #75 ) ;
#62 = CARTESIAN_POINT ( 'NONE',  ( 1.047444401652940007E-14, 1.124819836996384174E-32, 3.000000000000000000 ) ) ;
#63 = DIRECTION ( 'NONE',  ( 0.0000000000000000000, -1.000000000000000000, 0.0000000000000000000 ) ) ;
#64 = DATE_AND_TIME ( #235, #139 ) ;
#65 = PRODUCT_DEFINITION ( 'UNKNOWN', '', #239, #4 ) ;
#66 = APPROVAL_DATE_TIME ( #217, #60 ) ;
#67 = CARTESIAN_POINT ( 'NONE',  ( 1.047444401652939849E-14, -0.3000000000000002665, 2.999999999999999556 ) ) ;
#68 = DIRECTION ( 'NONE',  ( 0.0000000000000000000, 0.0000000000000000000, 1.000000000000000000 ) ) ;
#69 = AXIS2_PLACEMENT_3D ( 'NONE', #160, #68, #194 ) ;
#70 = APPROVAL_PERSON_ORGANIZATION ( #37, #34, #209 ) ;
#71 = ORIENTED_EDGE ( 'NONE', *, *, #107, .T. ) ;
#72 = APPROVAL ( #123, 'UNSPECIFIED' ) ;
#73 = EDGE_LOOP ( 'NONE', ( #241 ) ) ;
#74 = ORIENTED_EDGE ( 'NONE', *, *, #242, .T. ) ;
#75 = AXIS2_PLACEMENT_3D ( 'NONE', #5, #135, #190 ) ;
#76 = EDGE_LOOP ( 'NONE', ( #145 ) ) ;
#77 = ADVANCED_FACE ( 'NONE', ( #96 ), #39, .F. ) ;
#78 = DIRECTION ( 'NONE',  ( -4.318720456597940409E-31, -1.000000000000000000, -1.219242935835426903E-16 ) ) ;
#79 = CARTESIAN_POINT ( 'NONE',  ( 1.228176774875465645E-14, -4.288855392308103452E-16, 3.517638090205028600 ) ) ;
#80 = DIRECTION ( 'NONE',  ( 0.0000000000000000000, -1.000000000000000000, 0.0000000000000000000 ) ) ;
#81 = AXIS2_PLACEMENT_3D ( 'NONE', #172, #130, #211 ) ;
#82 = FACE_BOUND ( 'NONE', #165, .T. ) ;
#83 = AXIS2_PLACEMENT_3D ( 'NONE', #222, #44, #184 ) ;
#84 = EDGE_CURVE ( 'NONE', #117, #117, #161, .T. ) ;
#85 = PLANE ( 'NONE',  #133 ) ;
#86 = CYLINDRICAL_SURFACE ( 'NONE', #7, 1.499999999999990896 ) ;
#87 = PERSON_AND_ORGANIZATION ( #146, #124 ) ;
#88 = DIRECTION ( 'NONE',  ( 0.0000000000000000000, 1.000000000000000000, 0.0000000000000000000 ) ) ;
#89 = ADVANCED_FACE ( 'NONE', ( #17, #59 ), #40, .T. ) ;
#90 = PERSON_AND_ORGANIZATION_ROLE ( 'design_owner' ) ;
#91 = AXIS2_PLACEMENT_3D ( 'NONE', #104, #178, #63 ) ;
#92 = EDGE_LOOP ( 'NONE', ( #14 ) ) ;
#93 = CARTESIAN_POINT ( 'NONE',  ( 1.326762908760390423E-13, 1.199999999999987521, 38.00000000000000000 ) ) ;
#94 = CARTESIAN_POINT ( 'NONE',  ( 1.326762908760390423E-13, -4.653657836759941941E-15, 38.00000000000000000 ) ) ;
#95 =( NAMED_UNIT ( * ) PLANE_ANGLE_UNIT ( ) SI_UNIT ( $, .RADIAN. ) );
#96 = FACE_OUTER_BOUND ( 'NONE', #126, .T. ) ;
#97 = CALENDAR_DATE ( 2021, 1, 11 ) ;
#98 = CARTESIAN_POINT ( 'NONE',  ( 1.047444401652939849E-14, -4.336808689942017736E-16, 2.999999999999999556 ) ) ;
#99 = CIRCLE ( 'NONE', #81, 1.499999999999990896 ) ;
#100 = DIRECTION ( 'NONE',  ( 3.491481338843133355E-15, -1.219242935835426903E-16, 1.000000000000000000 ) ) ;
#101 = CC_DESIGN_DATE_AND_TIME_ASSIGNMENT ( #55, #3, ( #35 ) ) ;
#102 = AXIS2_PLACEMENT_3D ( 'NONE', #238, #119, #121 ) ;
#103 = VERTEX_POINT ( 'NONE', #29 ) ;
#104 = CARTESIAN_POINT ( 'NONE',  ( 1.047444401652939849E-14, -3.657728807506280215E-16, 2.999999999999999556 ) ) ;
#105 = PERSON_AND_ORGANIZATION ( #146, #124 ) ;
#106 = VERTEX_POINT ( 'NONE', #163 ) ;
#107 = EDGE_CURVE ( 'NONE', #156, #156, #99, .T. ) ;
#108 = MANIFOLD_SOLID_BREP ( 'Corps-Déplacer/Copier1[1]', #16 ) ;
#109 = VERTEX_POINT ( 'NONE', #93 ) ;
#110 = LOCAL_TIME ( 10, 45, 59.00000000000000000, #233 ) ;
#111 = CC_DESIGN_APPROVAL ( #60, ( #65 ) ) ;
#112 = CARTESIAN_POINT ( 'NONE',  ( 1.316288464743861212E-13, 1.499999999999988232, 37.69999999999999574 ) ) ;
#113 = ORIENTED_EDGE ( 'NONE', *, *, #242, .F. ) ;
#114 = FACE_OUTER_BOUND ( 'NONE', #92, .T. ) ;
#115 = LOCAL_TIME ( 10, 45, 59.00000000000000000, #195 ) ;
#116 = APPLICATION_CONTEXT ( 'configuration controlled 3d designs of mechanical parts and assemblies' ) ;
#117 = VERTEX_POINT ( 'NONE', #67 ) ;
#118 = PRODUCT ( '60126', '60126', '', ( #176 ) ) ;
#119 = DIRECTION ( 'NONE',  ( 3.491481338843133355E-15, -1.219242935835426903E-16, 1.000000000000000000 ) ) ;
#120 = CC_DESIGN_PERSON_AND_ORGANIZATION_ASSIGNMENT ( #221, #19, ( #239 ) ) ;
#121 = DIRECTION ( 'NONE',  ( -4.256963957985708889E-31, -1.000000000000000000, -1.219242935835426903E-16 ) ) ;
#122 = DIRECTION ( 'NONE',  ( 3.491481338843133355E-15, -1.219242935835426903E-16, 1.000000000000000000 ) ) ;
#123 = APPROVAL_STATUS ( 'not_yet_approved' ) ;
#124 = ORGANIZATION ( 'UNSPECIFIED', 'UNSPECIFIED', '' ) ;
#125 = ADVANCED_FACE ( 'NONE', ( #114, #38 ), #13, .F. ) ;
#126 = EDGE_LOOP ( 'NONE', ( #113 ) ) ;
#127 = EDGE_LOOP ( 'NONE', ( #15 ) ) ;
#128 = CC_DESIGN_APPROVAL ( #34, ( #35 ) ) ;
#129 = AXIS2_PLACEMENT_3D ( 'NONE', #151, #171, #2 ) ;
#130 = DIRECTION ( 'NONE',  ( -3.491481338843133355E-15, 1.219242935835426903E-16, -1.000000000000000000 ) ) ;
#131 = APPLICATION_PROTOCOL_DEFINITION ( 'international standard', 'config_control_design', 1994, #229 ) ;
#132 = CARTESIAN_POINT ( 'NONE',  ( 1.326762908760390423E-13, -4.653657836759941941E-15, 38.00000000000000000 ) ) ;
#133 = AXIS2_PLACEMENT_3D ( 'NONE', #62, #193, #216 ) ;
#134 = FACE_OUTER_BOUND ( 'NONE', #127, .T. ) ;
#135 = DIRECTION ( 'NONE',  ( 3.491481338843133355E-15, -1.224646799147353207E-16, 1.000000000000000000 ) ) ;
#136 = FACE_OUTER_BOUND ( 'NONE', #33, .T. ) ;
#137 = APPROVAL_DATE_TIME ( #64, #72 ) ;
#138 = PERSON_AND_ORGANIZATION ( #146, #124 ) ;
#139 = LOCAL_TIME ( 10, 45, 59.00000000000000000, #240 ) ;
#140 = CARTESIAN_POINT ( 'NONE',  ( 2.703023139389605501E-14, -1.499999999999991784, 7.741765964257521837 ) ) ;
#141 = CC_DESIGN_APPROVAL ( #72, ( #239 ) ) ;
#142 = PRODUCT_DEFINITION_SHAPE ( 'NONE', 'NONE',  #65 ) ;
#143 = ORIENTED_EDGE ( 'NONE', *, *, #84, .F. ) ;
#144 = ADVANCED_FACE ( 'NONE', ( #134 ), #61, .T. ) ;
#145 = ORIENTED_EDGE ( 'NONE', *, *, #182, .T. ) ;
#146 = PERSON ( 'UNSPECIFIED', 'UNSPECIFIED', 'UNSPECIFIED', ('UNSPECIFIED'), ('UNSPECIFIED'), ('UNSPECIFIED') ) ;
#147 = EDGE_LOOP ( 'NONE', ( #51 ) ) ;
#148 = AXIS2_PLACEMENT_3D ( 'NONE', #48, #9, #88 ) ;
#149 = SHAPE_DEFINITION_REPRESENTATION ( #142, #20 ) ;
#150 = DIRECTION ( 'NONE',  ( 0.0000000000000000000, 1.000000000000000000, 0.0000000000000000000 ) ) ;
#151 = CARTESIAN_POINT ( 'NONE',  ( -1.924129419174264339E-30, 6.748937501461144163E-32, -5.510925685805913103E-16 ) ) ;
#152 = DIRECTION ( 'NONE',  ( -3.491481338843133355E-15, 1.224646799147353207E-16, -1.000000000000000000 ) ) ;
#153 = CALENDAR_DATE ( 2021, 1, 11 ) ;
#154 = CLOSED_SHELL ( 'NONE', ( #144, #213, #77 ) ) ;
#155 = ORIENTED_EDGE ( 'NONE', *, *, #43, .F. ) ;
#156 = VERTEX_POINT ( 'NONE', #140 ) ;
#157 = PERSON_AND_ORGANIZATION ( #146, #124 ) ;
#158 = APPROVAL_ROLE ( '' ) ;
#159 = CARTESIAN_POINT ( 'NONE',  ( -4.617342473972639261E-30, 1.612399336377190876E-31, -1.322459445108347184E-15 ) ) ;
#160 = CARTESIAN_POINT ( 'NONE',  ( 0.0000000000000000000, 0.0000000000000000000, 0.0000000000000000000 ) ) ;
#161 = CIRCLE ( 'NONE', #205, 0.2999999999999998779 ) ;
#162 = ADVANCED_FACE ( 'NONE', ( #82, #191 ), #210, .T. ) ;
#163 = CARTESIAN_POINT ( 'NONE',  ( 1.047444401652939849E-14, -0.3000000000000002665, 2.999999999999999556 ) ) ;
#164 = EDGE_LOOP ( 'NONE', ( #143 ) ) ;
#165 = EDGE_LOOP ( 'NONE', ( #57 ) ) ;
#166 = AXIS2_PLACEMENT_3D ( 'NONE', #132, #152, #23 ) ;
#167 = DIRECTION ( 'NONE',  ( -3.491481338843133355E-15, 1.224646799147353207E-16, -1.000000000000000000 ) ) ;
#168 = COORDINATED_UNIVERSAL_TIME_OFFSET ( 1, 0, .AHEAD. ) ;
#169 = CARTESIAN_POINT ( 'NONE',  ( 1.326762908760390423E-13, 8.998558695971017012E-33, 38.00000000000000000 ) ) ;
#170 = CC_DESIGN_PERSON_AND_ORGANIZATION_ASSIGNMENT ( #181, #90, ( #118 ) ) ;
#171 = DIRECTION ( 'NONE',  ( 3.491481338843133355E-15, -1.224646799147353207E-16, 1.000000000000000000 ) ) ;
#172 = CARTESIAN_POINT ( 'NONE',  ( 2.703023139389605501E-14, -9.439093462812125714E-16, 7.741765964257521837 ) ) ;
#173 = LOCAL_TIME ( 10, 45, 59.00000000000000000, #168 ) ;
#174 = FACE_OUTER_BOUND ( 'NONE', #21, .T. ) ;
#175 = FACE_OUTER_BOUND ( 'NONE', #219, .T. ) ;
#176 = MECHANICAL_CONTEXT ( 'NONE', #229, 'mechanical' ) ;
#177 = DATE_AND_TIME ( #32, #110 ) ;
#178 = DIRECTION ( 'NONE',  ( 3.491481338843133355E-15, -1.219242935835426903E-16, 1.000000000000000000 ) ) ;
#179 = AXIS2_PLACEMENT_3D ( 'NONE', #79, #100, #25 ) ;
#180 = CARTESIAN_POINT ( 'NONE',  ( -4.745051392712210519E-30, -0.2999999999999999334, -1.359036733183409813E-15 ) ) ;
#181 = PERSON_AND_ORGANIZATION ( #146, #124 ) ;
#182 = EDGE_CURVE ( 'NONE', #109, #109, #36, .T. ) ;
#183 =( GEOMETRIC_REPRESENTATION_CONTEXT ( 3 ) GLOBAL_UNCERTAINTY_ASSIGNED_CONTEXT ( ( #189 ) ) GLOBAL_UNIT_ASSIGNED_CONTEXT ( ( #52, #95, #53 ) ) REPRESENTATION_CONTEXT ( 'NONE', 'WORKASPACE' ) );
#184 = DIRECTION ( 'NONE',  ( 0.0000000000000000000, -1.000000000000000000, 0.0000000000000000000 ) ) ;
#185 = ORIENTED_EDGE ( 'NONE', *, *, #215, .F. ) ;
#186 = DATE_AND_TIME ( #153, #204 ) ;
#187 = MANIFOLD_SOLID_BREP ( 'Corps-Déplacer/Copier1[2]', #154 ) ;
#188 = EDGE_LOOP ( 'NONE', ( #155 ) ) ;
#189 = UNCERTAINTY_MEASURE_WITH_UNIT (LENGTH_MEASURE( 1.000000000000000082E-05 ), #52, 'distance_accuracy_value', 'NONE');
#190 = DIRECTION ( 'NONE',  ( -4.275831445896958607E-31, -1.000000000000000000, -1.224646799147353207E-16 ) ) ;
#191 = FACE_OUTER_BOUND ( 'NONE', #54, .T. ) ;
#192 = CIRCLE ( 'NONE', #148, 1.499999999999992895 ) ;
#193 = DIRECTION ( 'NONE',  ( 3.491481338843133355E-15, -1.224646799147353207E-16, 1.000000000000000000 ) ) ;
#194 = DIRECTION ( 'NONE',  ( 1.000000000000000000, 0.0000000000000000000, 0.0000000000000000000 ) ) ;
#195 = COORDINATED_UNIVERSAL_TIME_OFFSET ( 1, 0, .AHEAD. ) ;
#196 = ADVANCED_FACE ( 'NONE', ( #224, #174 ), #86, .T. ) ;
#197 = DIRECTION ( 'NONE',  ( -4.256963957985718523E-31, -1.000000000000000000, -1.219242935835426903E-16 ) ) ;
#198 = AXIS2_PLACEMENT_3D ( 'NONE', #159, #122, #197 ) ;
#199 = CARTESIAN_POINT ( 'NONE',  ( 0.0000000000000000000, 0.0000000000000000000, 0.0000000000000000000 ) ) ;
#200 = PERSON_AND_ORGANIZATION_ROLE ( 'creator' ) ;
#201 = VERTEX_POINT ( 'NONE', #112 ) ;
#202 = CC_DESIGN_PERSON_AND_ORGANIZATION_ASSIGNMENT ( #227, #22, ( #35 ) ) ;
#203 = ADVANCED_FACE ( 'NONE', ( #175 ), #85, .F. ) ;
#204 = LOCAL_TIME ( 10, 45, 59.00000000000000000, #1 ) ;
#205 = AXIS2_PLACEMENT_3D ( 'NONE', #226, #231, #80 ) ;
#206 = DIRECTION ( 'NONE',  ( 4.275831445896958607E-31, 1.000000000000000000, 1.224646799147353207E-16 ) ) ;
#207 = FACE_OUTER_BOUND ( 'NONE', #147, .T. ) ;
#208 = CC_DESIGN_DATE_AND_TIME_ASSIGNMENT ( #177, #12, ( #65 ) ) ;
#209 = APPROVAL_ROLE ( '' ) ;
#210 = CONICAL_SURFACE ( 'NONE', #83, 2.499999999999992006, 0.2617993877991429130 ) ;
#211 = DIRECTION ( 'NONE',  ( 0.0000000000000000000, -1.000000000000000000, 0.0000000000000000000 ) ) ;
#212 = ORIENTED_EDGE ( 'NONE', *, *, #237, .T. ) ;
#213 = ADVANCED_FACE ( 'NONE', ( #136, #31 ), #47, .T. ) ;
#214 = APPROVAL_PERSON_ORGANIZATION ( #157, #60, #49 ) ;
#215 = EDGE_CURVE ( 'NONE', #106, #106, #56, .T. ) ;
#216 = DIRECTION ( 'NONE',  ( -4.275831445896958607E-31, -1.000000000000000000, -1.224646799147353207E-16 ) ) ;
#217 = DATE_AND_TIME ( #236, #115 ) ;
#218 = ORIENTED_EDGE ( 'NONE', *, *, #107, .F. ) ;
#219 = EDGE_LOOP ( 'NONE', ( #185 ) ) ;
#220 = EDGE_LOOP ( 'NONE', ( #212 ) ) ;
#221 = PERSON_AND_ORGANIZATION ( #146, #124 ) ;
#222 = CARTESIAN_POINT ( 'NONE',  ( 4.006061714413758281E-14, -1.398937004611950205E-15, 11.47381677182649895 ) ) ;
#223 = APPROVAL_DATE_TIME ( #186, #34 ) ;
#224 = FACE_OUTER_BOUND ( 'NONE', #220, .T. ) ;
#225 = APPROVAL_STATUS ( 'not_yet_approved' ) ;
#226 = CARTESIAN_POINT ( 'NONE',  ( 1.047444401652939849E-14, -3.657728807506280215E-16, 2.999999999999999556 ) ) ;
#227 = PERSON_AND_ORGANIZATION ( #146, #124 ) ;
#228 = DIRECTION ( 'NONE',  ( 3.491481338843133355E-15, -1.219242935835426903E-16, 1.000000000000000000 ) ) ;
#229 = APPLICATION_CONTEXT ( 'configuration controlled 3d designs of mechanical parts and assemblies' ) ;
#230 = AXIS2_PLACEMENT_3D ( 'NONE', #169, #58, #206 ) ;
#231 = DIRECTION ( 'NONE',  ( 3.491481338843133355E-15, -1.219242935835426903E-16, 1.000000000000000000 ) ) ;
#232 = DIRECTION ( 'NONE',  ( -3.491481338843133355E-15, 1.224646799147353207E-16, -1.000000000000000000 ) ) ;
#233 = COORDINATED_UNIVERSAL_TIME_OFFSET ( 1, 0, .AHEAD. ) ;
#234 = PRODUCT_RELATED_PRODUCT_CATEGORY ( 'detail', '', ( #118 ) ) ;
#235 = CALENDAR_DATE ( 2021, 1, 11 ) ;
#236 = CALENDAR_DATE ( 2021, 1, 11 ) ;
#237 = EDGE_CURVE ( 'NONE', #201, #201, #192, .T. ) ;
#238 = CARTESIAN_POINT ( 'NONE',  ( 0.0000000000000000000, 0.0000000000000000000, 0.0000000000000000000 ) ) ;
#239 = PRODUCT_DEFINITION_FORMATION_WITH_SPECIFIED_SOURCE ( 'ANY', '', #118, .NOT_KNOWN. ) ;
#240 = COORDINATED_UNIVERSAL_TIME_OFFSET ( 1, 0, .AHEAD. ) ;
#241 = ORIENTED_EDGE ( 'NONE', *, *, #237, .F. ) ;
#242 = EDGE_CURVE ( 'NONE', #18, #18, #46, .T. ) ;
#243 = CC_DESIGN_PERSON_AND_ORGANIZATION_ASSIGNMENT ( #138, #200, ( #65 ) ) ;
ENDSEC;
END-ISO-10303-21;
