ISO-10303-21;
HEADER;
FILE_DESCRIPTION (( 'STEP AP203' ),
    '1' );
FILE_NAME ('60125.step',
    '2021-11-01T09:45:58',
    ( '' ),
    ( '' ),
    'SwSTEP 2.0',
    'SolidWorks 2019',
    '' );
FILE_SCHEMA (( 'CONFIG_CONTROL_DESIGN' ));
ENDSEC;

DATA;
#1 = APPROVAL_ROLE ( '' ) ;
#2 = CLOSED_SHELL ( 'NONE', ( #112, #85, #141, #207, #167, #226 ) ) ;
#3 =( NAMED_UNIT ( * ) PLANE_ANGLE_UNIT ( ) SI_UNIT ( $, .RADIAN. ) );
#4 = SHAPE_DEFINITION_REPRESENTATION ( #128, #28 ) ;
#5 = ORIENTED_EDGE ( 'NONE', *, *, #203, .T. ) ;
#6 = CIRCLE ( 'NONE', #33, 1.199999999999992184 ) ;
#7 = PERSON_AND_ORGANIZATION_ROLE ( 'creator' ) ;
#8 = ORIENTED_EDGE ( 'NONE', *, *, #101, .T. ) ;
#9 = AXIS2_PLACEMENT_3D ( 'NONE', #161, #146, #143 ) ;
#10 = UNCERTAINTY_MEASURE_WITH_UNIT (LENGTH_MEASURE( 1.000000000000000082E-05 ), #17, 'distance_accuracy_value', 'NONE');
#11 = DIRECTION ( 'NONE',  ( 3.491481338843133355E-15, -1.224646799147353207E-16, 1.000000000000000000 ) ) ;
#12 = DIRECTION ( 'NONE',  ( 3.491481338843133355E-15, -1.219242935835426903E-16, 1.000000000000000000 ) ) ;
#13 = FACE_OUTER_BOUND ( 'NONE', #99, .T. ) ;
#14 = LOCAL_TIME ( 10, 45, 58.00000000000000000, #137 ) ;
#15 = DIRECTION ( 'NONE',  ( -3.491481338843133355E-15, 1.224646799147353207E-16, -1.000000000000000000 ) ) ;
#16 = DIRECTION ( 'NONE',  ( 4.275831445896958607E-31, 1.000000000000000000, 1.224646799147353207E-16 ) ) ;
#17 =( LENGTH_UNIT ( ) NAMED_UNIT ( * ) SI_UNIT ( .MILLI., .METRE. ) );
#18 = AXIS2_PLACEMENT_3D ( 'NONE', #163, #240, #50 ) ;
#19 = DIRECTION ( 'NONE',  ( 0.0000000000000000000, 0.0000000000000000000, 1.000000000000000000 ) ) ;
#20 = VERTEX_POINT ( 'NONE', #131 ) ;
#21 = APPLICATION_PROTOCOL_DEFINITION ( 'international standard', 'config_control_design', 1994, #175 ) ;
#22 = AXIS2_PLACEMENT_3D ( 'NONE', #236, #51, #129 ) ;
#23 = CARTESIAN_POINT ( 'NONE',  ( 8.728703347107830233E-15, -0.2500000000000000000, 2.499999999999999112 ) ) ;
#24 = AXIS2_PLACEMENT_3D ( 'NONE', #144, #201, #34 ) ;
#25 = APPROVAL_DATE_TIME ( #213, #233 ) ;
#26 = FACE_OUTER_BOUND ( 'NONE', #119, .T. ) ;
#27 = SECURITY_CLASSIFICATION ( '', '', #231 ) ;
#28 = ADVANCED_BREP_SHAPE_REPRESENTATION ( '60125', ( #219, #136, #195 ), #187 ) ;
#29 = CARTESIAN_POINT ( 'NONE',  ( -4.596057654182710484E-30, 1.604966569694267977E-31, -1.316363230429170079E-15 ) ) ;
#30 = FACE_OUTER_BOUND ( 'NONE', #43, .T. ) ;
#31 = DIRECTION ( 'NONE',  ( 3.491481338843133355E-15, -1.219242935835426903E-16, 1.000000000000000000 ) ) ;
#32 = ADVANCED_FACE ( 'NONE', ( #194 ), #196, .F. ) ;
#33 = AXIS2_PLACEMENT_3D ( 'NONE', #69, #221, #47 ) ;
#34 = DIRECTION ( 'NONE',  ( 0.0000000000000000000, -1.000000000000000000, 0.0000000000000000000 ) ) ;
#35 = CARTESIAN_POINT ( 'NONE',  ( -4.702481753132352966E-30, -0.2500000000000000000, -1.346844303825055801E-15 ) ) ;
#36 = CONICAL_SURFACE ( 'NONE', #9, 2.499999999999992006, 0.2617993877991428575 ) ;
#37 = VERTEX_POINT ( 'NONE', #23 ) ;
#38 = VERTEX_POINT ( 'NONE', #205 ) ;
#39 = LOCAL_TIME ( 10, 45, 58.00000000000000000, #71 ) ;
#40 = COORDINATED_UNIVERSAL_TIME_OFFSET ( 1, 0, .AHEAD. ) ;
#41 = ORIENTED_EDGE ( 'NONE', *, *, #162, .F. ) ;
#42 = PERSON_AND_ORGANIZATION ( #171, #123 ) ;
#43 = EDGE_LOOP ( 'NONE', ( #153 ) ) ;
#44 = CC_DESIGN_DATE_AND_TIME_ASSIGNMENT ( #100, #60, ( #27 ) ) ;
#45 = ORIENTED_EDGE ( 'NONE', *, *, #120, .F. ) ;
#46 = CARTESIAN_POINT ( 'NONE',  ( -1.924129419174264339E-30, 6.748937501461144163E-32, -5.510925685805913103E-16 ) ) ;
#47 = DIRECTION ( 'NONE',  ( 0.0000000000000000000, 1.000000000000000000, 0.0000000000000000000 ) ) ;
#48 = CIRCLE ( 'NONE', #134, 0.3181483474218597673 ) ;
#49 = DIRECTION ( 'NONE',  ( 0.0000000000000000000, -1.000000000000000000, 0.0000000000000000000 ) ) ;
#50 = DIRECTION ( 'NONE',  ( 4.275831445896958607E-31, 1.000000000000000000, 1.224646799147353454E-16 ) ) ;
#51 = DIRECTION ( 'NONE',  ( 3.491481338843133355E-15, -1.219242935835426903E-16, 1.000000000000000000 ) ) ;
#52 = PERSON_AND_ORGANIZATION ( #171, #123 ) ;
#53 = PRODUCT ( '60125', '60125', '', ( #185 ) ) ;
#54 = PERSON_AND_ORGANIZATION_ROLE ( 'design_owner' ) ;
#55 = CYLINDRICAL_SURFACE ( 'NONE', #145, 0.2499999999999998335 ) ;
#56 = CIRCLE ( 'NONE', #241, 0.2499999999999996669 ) ;
#57 = APPROVAL_STATUS ( 'not_yet_approved' ) ;
#58 = CC_DESIGN_PERSON_AND_ORGANIZATION_ASSIGNMENT ( #168, #54, ( #53 ) ) ;
#59 = PERSON_AND_ORGANIZATION ( #171, #123 ) ;
#60 = DATE_TIME_ROLE ( 'classification_date' ) ;
#61 = EDGE_LOOP ( 'NONE', ( #114 ) ) ;
#62 = PERSON_AND_ORGANIZATION_ROLE ( 'design_supplier' ) ;
#63 = ORIENTED_EDGE ( 'NONE', *, *, #125, .T. ) ;
#64 = APPROVAL_DATE_TIME ( #140, #193 ) ;
#65 = DIRECTION ( 'NONE',  ( 3.491481338843133355E-15, -1.219242935835426903E-16, 1.000000000000000000 ) ) ;
#66 = FACE_OUTER_BOUND ( 'NONE', #174, .T. ) ;
#67 = CARTESIAN_POINT ( 'NONE',  ( 8.728703347107831810E-15, 1.124819836996384311E-32, 2.499999999999999556 ) ) ;
#68 = PLANE ( 'NONE',  #96 ) ;
#69 = CARTESIAN_POINT ( 'NONE',  ( 1.326762908760390423E-13, -4.653657836759941941E-15, 38.00000000000000000 ) ) ;
#70 = APPLICATION_PROTOCOL_DEFINITION ( 'international standard', 'config_control_design', 1994, #238 ) ;
#71 = COORDINATED_UNIVERSAL_TIME_OFFSET ( 1, 0, .AHEAD. ) ;
#72 = CC_DESIGN_PERSON_AND_ORGANIZATION_ASSIGNMENT ( #42, #62, ( #91 ) ) ;
#73 = CONICAL_SURFACE ( 'NONE', #97, 1.199999999999992184, 0.7853981633974468357 ) ;
#74 = CC_DESIGN_APPROVAL ( #193, ( #91 ) ) ;
#75 = CC_DESIGN_PERSON_AND_ORGANIZATION_ASSIGNMENT ( #170, #7, ( #91 ) ) ;
#76 = VERTEX_POINT ( 'NONE', #93 ) ;
#77 = EDGE_LOOP ( 'NONE', ( #212 ) ) ;
#78 = APPROVAL_PERSON_ORGANIZATION ( #149, #130, #1 ) ;
#79 = CALENDAR_DATE ( 2021, 1, 11 ) ;
#80 = ORIENTED_EDGE ( 'NONE', *, *, #181, .F. ) ;
#81 = LOCAL_TIME ( 10, 45, 58.00000000000000000, #40 ) ;
#82 = EDGE_LOOP ( 'NONE', ( #63 ) ) ;
#83 = DIRECTION ( 'NONE',  ( -3.491481338843133355E-15, 1.224646799147353207E-16, -1.000000000000000000 ) ) ;
#84 = DIRECTION ( 'NONE',  ( 0.0000000000000000000, 1.000000000000000000, 0.0000000000000000000 ) ) ;
#85 = ADVANCED_FACE ( 'NONE', ( #26, #104 ), #73, .T. ) ;
#86 = FACE_OUTER_BOUND ( 'NONE', #210, .T. ) ;
#87 = LOCAL_TIME ( 10, 45, 58.00000000000000000, #95 ) ;
#88 = DIRECTION ( 'NONE',  ( 3.491481338843133355E-15, -1.224646799147353207E-16, 1.000000000000000000 ) ) ;
#89 = CARTESIAN_POINT ( 'NONE',  ( 8.728703347107831810E-15, 1.124819836996384311E-32, 2.499999999999999556 ) ) ;
#90 = PRODUCT_DEFINITION ( 'UNKNOWN', '', #91, #121 ) ;
#91 = PRODUCT_DEFINITION_FORMATION_WITH_SPECIFIED_SOURCE ( 'ANY', '', #53, .NOT_KNOWN. ) ;
#92 = DATE_AND_TIME ( #204, #39 ) ;
#93 = CARTESIAN_POINT ( 'NONE',  ( 1.053602707933308819E-14, -0.3181483474218601559, 3.017638090205028156 ) ) ;
#94 = CC_DESIGN_PERSON_AND_ORGANIZATION_ASSIGNMENT ( #52, #242, ( #90 ) ) ;
#95 = COORDINATED_UNIVERSAL_TIME_OFFSET ( 1, 0, .AHEAD. ) ;
#96 = AXIS2_PLACEMENT_3D ( 'NONE', #89, #11, #124 ) ;
#97 = AXIS2_PLACEMENT_3D ( 'NONE', #183, #83, #84 ) ;
#98 =( NAMED_UNIT ( * ) SI_UNIT ( $, .STERADIAN. ) SOLID_ANGLE_UNIT ( ) );
#99 = EDGE_LOOP ( 'NONE', ( #156 ) ) ;
#100 = DATE_AND_TIME ( #79, #177 ) ;
#101 = EDGE_CURVE ( 'NONE', #20, #20, #215, .T. ) ;
#102 = CLOSED_SHELL ( 'NONE', ( #197, #234, #32 ) ) ;
#103 = DIRECTION ( 'NONE',  ( 0.0000000000000000000, 1.000000000000000000, 0.0000000000000000000 ) ) ;
#104 = FACE_BOUND ( 'NONE', #188, .T. ) ;
#105 = CARTESIAN_POINT ( 'NONE',  ( 1.316288464743861212E-13, -4.616918432785521081E-15, 37.69999999999999574 ) ) ;
#106 = FACE_OUTER_BOUND ( 'NONE', #61, .T. ) ;
#107 = DIRECTION ( 'NONE',  ( -3.491481338843133355E-15, 1.224646799147353207E-16, -1.000000000000000000 ) ) ;
#108 = DIRECTION ( 'NONE',  ( -4.275831445896958607E-31, -1.000000000000000000, -1.224646799147353207E-16 ) ) ;
#109 = FACE_OUTER_BOUND ( 'NONE', #142, .T. ) ;
#110 = CIRCLE ( 'NONE', #122, 1.499999999999990674 ) ;
#111 = VERTEX_POINT ( 'NONE', #224 ) ;
#112 = ADVANCED_FACE ( 'NONE', ( #66, #239 ), #220, .T. ) ;
#113 = APPROVAL_STATUS ( 'not_yet_approved' ) ;
#114 = ORIENTED_EDGE ( 'NONE', *, *, #120, .T. ) ;
#115 = APPROVAL_ROLE ( '' ) ;
#116 = ORIENTED_EDGE ( 'NONE', *, *, #172, .T. ) ;
#117 = APPROVAL_PERSON_ORGANIZATION ( #227, #193, #115 ) ;
#118 = PERSON_AND_ORGANIZATION ( #171, #123 ) ;
#119 = EDGE_LOOP ( 'NONE', ( #138 ) ) ;
#120 = EDGE_CURVE ( 'NONE', #38, #38, #110, .T. ) ;
#121 = DESIGN_CONTEXT ( 'detailed design', #175, 'design' ) ;
#122 = AXIS2_PLACEMENT_3D ( 'NONE', #217, #127, #49 ) ;
#123 = ORGANIZATION ( 'UNSPECIFIED', 'UNSPECIFIED', '' ) ;
#124 = DIRECTION ( 'NONE',  ( -4.275831445896958607E-31, -1.000000000000000000, -1.224646799147353207E-16 ) ) ;
#125 = EDGE_CURVE ( 'NONE', #76, #76, #48, .T. ) ;
#126 = CARTESIAN_POINT ( 'NONE',  ( 1.053602707933308819E-14, -3.679233924390389508E-16, 3.017638090205028156 ) ) ;
#127 = DIRECTION ( 'NONE',  ( -3.491481338843133355E-15, 1.219242935835426903E-16, -1.000000000000000000 ) ) ;
#128 = PRODUCT_DEFINITION_SHAPE ( 'NONE', 'NONE',  #90 ) ;
#129 = DIRECTION ( 'NONE',  ( -4.319447003640437456E-31, -1.000000000000000000, -1.219242935835426903E-16 ) ) ;
#130 = APPROVAL ( #202, 'UNSPECIFIED' ) ;
#131 = CARTESIAN_POINT ( 'NONE',  ( 1.316288464743861212E-13, 1.499999999999988232, 37.69999999999999574 ) ) ;
#132 = CC_DESIGN_DATE_AND_TIME_ASSIGNMENT ( #92, #150, ( #90 ) ) ;
#133 = DIRECTION ( 'NONE',  ( 3.491481338843133355E-15, -1.219242935835426903E-16, 1.000000000000000000 ) ) ;
#134 = AXIS2_PLACEMENT_3D ( 'NONE', #126, #31, #198 ) ;
#135 = CARTESIAN_POINT ( 'NONE',  ( 0.0000000000000000000, 0.0000000000000000000, 0.0000000000000000000 ) ) ;
#136 = MANIFOLD_SOLID_BREP ( 'Corps-Déplacer/Copier1[2]', #102 ) ;
#137 = COORDINATED_UNIVERSAL_TIME_OFFSET ( 1, 0, .AHEAD. ) ;
#138 = ORIENTED_EDGE ( 'NONE', *, *, #101, .F. ) ;
#139 = EDGE_LOOP ( 'NONE', ( #189 ) ) ;
#140 = DATE_AND_TIME ( #157, #81 ) ;
#141 = ADVANCED_FACE ( 'NONE', ( #179 ), #148, .F. ) ;
#142 = EDGE_LOOP ( 'NONE', ( #5 ) ) ;
#143 = DIRECTION ( 'NONE',  ( 0.0000000000000000000, -1.000000000000000000, 0.0000000000000000000 ) ) ;
#144 = CARTESIAN_POINT ( 'NONE',  ( 8.728703347107830233E-15, -3.048107339588566271E-16, 2.499999999999999112 ) ) ;
#145 = AXIS2_PLACEMENT_3D ( 'NONE', #206, #133, #223 ) ;
#146 = DIRECTION ( 'NONE',  ( 3.491481338843133355E-15, -1.219242935835426903E-16, 1.000000000000000000 ) ) ;
#147 = DIRECTION ( 'NONE',  ( -4.256963957985712392E-31, -1.000000000000000000, -1.219242935835429368E-16 ) ) ;
#148 = PLANE ( 'NONE',  #173 ) ;
#149 = PERSON_AND_ORGANIZATION ( #171, #123 ) ;
#150 = DATE_TIME_ROLE ( 'creation_date' ) ;
#151 = DATE_AND_TIME ( #166, #87 ) ;
#152 = PERSON_AND_ORGANIZATION_ROLE ( 'classification_officer' ) ;
#153 = ORIENTED_EDGE ( 'NONE', *, *, #181, .T. ) ;
#154 = CIRCLE ( 'NONE', #24, 0.2499999999999996669 ) ;
#155 = CC_DESIGN_APPROVAL ( #130, ( #90 ) ) ;
#156 = ORIENTED_EDGE ( 'NONE', *, *, #125, .F. ) ;
#157 = CALENDAR_DATE ( 2021, 1, 11 ) ;
#158 = AXIS2_PLACEMENT_3D ( 'NONE', #46, #88, #182 ) ;
#159 = FACE_OUTER_BOUND ( 'NONE', #191, .T. ) ;
#160 = APPROVAL_PERSON_ORGANIZATION ( #118, #233, #190 ) ;
#161 = CARTESIAN_POINT ( 'NONE',  ( 3.896639576222809883E-14, -1.360726240736716028E-15, 11.16041931220495087 ) ) ;
#162 = EDGE_CURVE ( 'NONE', #111, #111, #6, .T. ) ;
#163 = CARTESIAN_POINT ( 'NONE',  ( 0.0000000000000000000, 0.0000000000000000000, 0.0000000000000000000 ) ) ;
#164 = FACE_BOUND ( 'NONE', #82, .T. ) ;
#165 = APPROVAL_DATE_TIME ( #151, #130 ) ;
#166 = CALENDAR_DATE ( 2021, 1, 11 ) ;
#167 = ADVANCED_FACE ( 'NONE', ( #30, #13 ), #200, .F. ) ;
#168 = PERSON_AND_ORGANIZATION ( #171, #123 ) ;
#169 = VERTEX_POINT ( 'NONE', #35 ) ;
#170 = PERSON_AND_ORGANIZATION ( #171, #123 ) ;
#171 = PERSON ( 'UNSPECIFIED', 'UNSPECIFIED', 'UNSPECIFIED', ('UNSPECIFIED'), ('UNSPECIFIED'), ('UNSPECIFIED') ) ;
#172 = EDGE_CURVE ( 'NONE', #37, #37, #154, .T. ) ;
#173 = AXIS2_PLACEMENT_3D ( 'NONE', #216, #107, #16 ) ;
#174 = EDGE_LOOP ( 'NONE', ( #8 ) ) ;
#175 = APPLICATION_CONTEXT ( 'configuration controlled 3d designs of mechanical parts and assemblies' ) ;
#176 = AXIS2_PLACEMENT_3D ( 'NONE', #67, #218, #108 ) ;
#177 = LOCAL_TIME ( 10, 45, 58.00000000000000000, #230 ) ;
#178 = CC_DESIGN_PERSON_AND_ORGANIZATION_ASSIGNMENT ( #59, #152, ( #27 ) ) ;
#179 = FACE_OUTER_BOUND ( 'NONE', #211, .T. ) ;
#180 = CARTESIAN_POINT ( 'NONE',  ( 8.728703347107830233E-15, -3.048107339588566271E-16, 2.499999999999999112 ) ) ;
#181 = EDGE_CURVE ( 'NONE', #229, #229, #56, .T. ) ;
#182 = DIRECTION ( 'NONE',  ( -4.275831445896958607E-31, -1.000000000000000000, -1.224646799147353207E-16 ) ) ;
#183 = CARTESIAN_POINT ( 'NONE',  ( 1.326762908760390423E-13, -4.653657836759941941E-15, 38.00000000000000000 ) ) ;
#184 = AXIS2_PLACEMENT_3D ( 'NONE', #29, #12, #147 ) ;
#185 = MECHANICAL_CONTEXT ( 'NONE', #238, 'mechanical' ) ;
#186 = CARTESIAN_POINT ( 'NONE',  ( 8.728703347107830233E-15, -0.2500000000000000000, 2.499999999999999112 ) ) ;
#187 =( GEOMETRIC_REPRESENTATION_CONTEXT ( 3 ) GLOBAL_UNCERTAINTY_ASSIGNED_CONTEXT ( ( #10 ) ) GLOBAL_UNIT_ASSIGNED_CONTEXT ( ( #17, #3, #98 ) ) REPRESENTATION_CONTEXT ( 'NONE', 'WORKASPACE' ) );
#188 = EDGE_LOOP ( 'NONE', ( #235 ) ) ;
#189 = ORIENTED_EDGE ( 'NONE', *, *, #172, .F. ) ;
#190 = APPROVAL_ROLE ( '' ) ;
#191 = EDGE_LOOP ( 'NONE', ( #80 ) ) ;
#192 = CALENDAR_DATE ( 2021, 1, 11 ) ;
#193 = APPROVAL ( #57, 'UNSPECIFIED' ) ;
#194 = FACE_OUTER_BOUND ( 'NONE', #77, .T. ) ;
#195 = AXIS2_PLACEMENT_3D ( 'NONE', #135, #19, #208 ) ;
#196 = PLANE ( 'NONE',  #158 ) ;
#197 = ADVANCED_FACE ( 'NONE', ( #86 ), #68, .T. ) ;
#198 = DIRECTION ( 'NONE',  ( 0.0000000000000000000, -1.000000000000000000, 0.0000000000000000000 ) ) ;
#199 = DIRECTION ( 'NONE',  ( 0.0000000000000000000, -1.000000000000000000, 0.0000000000000000000 ) ) ;
#200 = TOROIDAL_SURFACE ( 'NONE', #22, 2.250000000000000444, 2.000000000000000444 ) ;
#201 = DIRECTION ( 'NONE',  ( 3.491481338843133355E-15, -1.219242935835426903E-16, 1.000000000000000000 ) ) ;
#202 = APPROVAL_STATUS ( 'not_yet_approved' ) ;
#203 = EDGE_CURVE ( 'NONE', #169, #169, #209, .T. ) ;
#204 = CALENDAR_DATE ( 2021, 1, 11 ) ;
#205 = CARTESIAN_POINT ( 'NONE',  ( 2.593601001198656472E-14, -1.499999999999991562, 7.428368504635971092 ) ) ;
#206 = CARTESIAN_POINT ( 'NONE',  ( 0.0000000000000000000, 0.0000000000000000000, 0.0000000000000000000 ) ) ;
#207 = ADVANCED_FACE ( 'NONE', ( #164, #106 ), #36, .T. ) ;
#208 = DIRECTION ( 'NONE',  ( 1.000000000000000000, 0.0000000000000000000, 0.0000000000000000000 ) ) ;
#209 = CIRCLE ( 'NONE', #184, 0.2500000000000000000 ) ;
#210 = EDGE_LOOP ( 'NONE', ( #116 ) ) ;
#211 = EDGE_LOOP ( 'NONE', ( #41 ) ) ;
#212 = ORIENTED_EDGE ( 'NONE', *, *, #203, .F. ) ;
#213 = DATE_AND_TIME ( #192, #14 ) ;
#214 = EDGE_LOOP ( 'NONE', ( #45 ) ) ;
#215 = CIRCLE ( 'NONE', #232, 1.499999999999992895 ) ;
#216 = CARTESIAN_POINT ( 'NONE',  ( 1.326762908760390423E-13, 8.998558695971017012E-33, 38.00000000000000000 ) ) ;
#217 = CARTESIAN_POINT ( 'NONE',  ( 2.593601001198656472E-14, -9.056985824059781967E-16, 7.428368504635971092 ) ) ;
#218 = DIRECTION ( 'NONE',  ( 3.491481338843133355E-15, -1.224646799147353207E-16, 1.000000000000000000 ) ) ;
#219 = MANIFOLD_SOLID_BREP ( 'Corps-Déplacer/Copier1[1]', #2 ) ;
#220 = CYLINDRICAL_SURFACE ( 'NONE', #18, 1.499999999999990674 ) ;
#221 = DIRECTION ( 'NONE',  ( -3.491481338843133355E-15, 1.224646799147353207E-16, -1.000000000000000000 ) ) ;
#222 = CC_DESIGN_APPROVAL ( #233, ( #27 ) ) ;
#223 = DIRECTION ( 'NONE',  ( -4.256963957985708889E-31, -1.000000000000000000, -1.219242935835426903E-16 ) ) ;
#224 = CARTESIAN_POINT ( 'NONE',  ( 1.326762908760390423E-13, 1.199999999999987521, 38.00000000000000000 ) ) ;
#225 = FACE_OUTER_BOUND ( 'NONE', #139, .T. ) ;
#226 = ADVANCED_FACE ( 'NONE', ( #159 ), #237, .F. ) ;
#227 = PERSON_AND_ORGANIZATION ( #171, #123 ) ;
#228 = CC_DESIGN_SECURITY_CLASSIFICATION ( #27, ( #91 ) ) ;
#229 = VERTEX_POINT ( 'NONE', #186 ) ;
#230 = COORDINATED_UNIVERSAL_TIME_OFFSET ( 1, 0, .AHEAD. ) ;
#231 = SECURITY_CLASSIFICATION_LEVEL ( 'unclassified' ) ;
#232 = AXIS2_PLACEMENT_3D ( 'NONE', #105, #15, #103 ) ;
#233 = APPROVAL ( #113, 'UNSPECIFIED' ) ;
#234 = ADVANCED_FACE ( 'NONE', ( #109, #225 ), #55, .T. ) ;
#235 = ORIENTED_EDGE ( 'NONE', *, *, #162, .T. ) ;
#236 = CARTESIAN_POINT ( 'NONE',  ( 8.728703347107830233E-15, -4.336808689942017736E-16, 2.499999999999999112 ) ) ;
#237 = PLANE ( 'NONE',  #176 ) ;
#238 = APPLICATION_CONTEXT ( 'configuration controlled 3d designs of mechanical parts and assemblies' ) ;
#239 = FACE_OUTER_BOUND ( 'NONE', #214, .T. ) ;
#240 = DIRECTION ( 'NONE',  ( -3.491481338843133355E-15, 1.224646799147353207E-16, -1.000000000000000000 ) ) ;
#241 = AXIS2_PLACEMENT_3D ( 'NONE', #180, #65, #199 ) ;
#242 = PERSON_AND_ORGANIZATION_ROLE ( 'creator' ) ;
#243 = PRODUCT_RELATED_PRODUCT_CATEGORY ( 'detail', '', ( #53 ) ) ;
ENDSEC;
END-ISO-10303-21;
