ISO-10303-21;
HEADER;
FILE_DESCRIPTION (( 'STEP AP203' ),
    '1' );
FILE_NAME ('60124.step',
    '2021-11-01T09:45:58',
    ( '' ),
    ( '' ),
    'SwSTEP 2.0',
    'SolidWorks 2019',
    '' );
FILE_SCHEMA (( 'CONFIG_CONTROL_DESIGN' ));
ENDSEC;

DATA;
#1 = EDGE_CURVE ( 'NONE', #84, #84, #230, .T. ) ;
#2 = EDGE_LOOP ( 'NONE', ( #223 ) ) ;
#3 = CARTESIAN_POINT ( 'NONE',  ( 1.326762908760390423E-13, 8.998558695971017012E-33, 38.00000000000000000 ) ) ;
#4 = ADVANCED_FACE ( 'NONE', ( #70, #100 ), #105, .T. ) ;
#5 = FACE_OUTER_BOUND ( 'NONE', #135, .T. ) ;
#6 = FACE_OUTER_BOUND ( 'NONE', #137, .T. ) ;
#7 = DIRECTION ( 'NONE',  ( 0.0000000000000000000, -1.000000000000000000, 0.0000000000000000000 ) ) ;
#8 = LOCAL_TIME ( 10, 45, 58.00000000000000000, #91 ) ;
#9 = FACE_OUTER_BOUND ( 'NONE', #2, .T. ) ;
#10 = DIRECTION ( 'NONE',  ( -4.320190849422040846E-31, -1.000000000000000000, -1.219242935835426903E-16 ) ) ;
#11 = AXIS2_PLACEMENT_3D ( 'NONE', #209, #123, #97 ) ;
#12 = CARTESIAN_POINT ( 'NONE',  ( 6.982962677686266711E-15, 1.124819836996384311E-32, 2.000000000000000000 ) ) ;
#13 = APPROVAL_ROLE ( '' ) ;
#14 = APPROVAL_ROLE ( '' ) ;
#15 = ORIENTED_EDGE ( 'NONE', *, *, #44, .F. ) ;
#16 = PERSON_AND_ORGANIZATION ( #65, #37 ) ;
#17 = EDGE_CURVE ( 'NONE', #218, #218, #222, .T. ) ;
#18 = ORIENTED_EDGE ( 'NONE', *, *, #17, .F. ) ;
#19 = DIRECTION ( 'NONE',  ( 3.491481338843133355E-15, -1.219242935835426903E-16, 1.000000000000000000 ) ) ;
#20 = PERSON_AND_ORGANIZATION ( #65, #37 ) ;
#21 = FACE_OUTER_BOUND ( 'NONE', #50, .T. ) ;
#22 = CARTESIAN_POINT ( 'NONE',  ( 1.326762908760390423E-13, -4.653657836759941941E-15, 38.00000000000000000 ) ) ;
#23 = DIRECTION ( 'NONE',  ( 0.0000000000000000000, 1.000000000000000000, 0.0000000000000000000 ) ) ;
#24 = CARTESIAN_POINT ( 'NONE',  ( 1.316288464743861212E-13, -4.616918432785521081E-15, 37.69999999999999574 ) ) ;
#25 = DIRECTION ( 'NONE',  ( 3.491481338843133355E-15, -1.224646799147353207E-16, 1.000000000000000000 ) ) ;
#26 = CARTESIAN_POINT ( 'NONE',  ( -4.659912113552496113E-30, -0.2000000000000000944, -1.334651874466701196E-15 ) ) ;
#27 =( NAMED_UNIT ( * ) PLANE_ANGLE_UNIT ( ) SI_UNIT ( $, .RADIAN. ) );
#28 = PERSON_AND_ORGANIZATION_ROLE ( 'creator' ) ;
#29 = APPROVAL ( #128, 'UNSPECIFIED' ) ;
#30 = DATE_TIME_ROLE ( 'creation_date' ) ;
#31 = EDGE_LOOP ( 'NONE', ( #34 ) ) ;
#32 = PRODUCT_DEFINITION ( 'UNKNOWN', '', #113, #174 ) ;
#33 = AXIS2_PLACEMENT_3D ( 'NONE', #24, #77, #143 ) ;
#34 = ORIENTED_EDGE ( 'NONE', *, *, #157, .F. ) ;
#35 = ORIENTED_EDGE ( 'NONE', *, *, #44, .T. ) ;
#36 = DATE_AND_TIME ( #199, #202 ) ;
#37 = ORGANIZATION ( 'UNSPECIFIED', 'UNSPECIFIED', '' ) ;
#38 = DIRECTION ( 'NONE',  ( 3.491481338843133355E-15, -1.219242935835426903E-16, 1.000000000000000000 ) ) ;
#39 = FACE_OUTER_BOUND ( 'NONE', #58, .T. ) ;
#40 = APPROVAL ( #117, 'UNSPECIFIED' ) ;
#41 = DIRECTION ( 'NONE',  ( 4.275831445896958607E-31, 1.000000000000000000, 1.224646799147353207E-16 ) ) ;
#42 = VERTEX_POINT ( 'NONE', #125 ) ;
#43 = CC_DESIGN_APPROVAL ( #40, ( #113 ) ) ;
#44 = EDGE_CURVE ( 'NONE', #42, #42, #121, .T. ) ;
#45 = CARTESIAN_POINT ( 'NONE',  ( 6.982962677686265133E-15, -4.336808689942017736E-16, 1.999999999999999556 ) ) ;
#46 = AXIS2_PLACEMENT_3D ( 'NONE', #76, #78, #160 ) ;
#47 = VERTEX_POINT ( 'NONE', #86 ) ;
#48 = SECURITY_CLASSIFICATION_LEVEL ( 'unclassified' ) ;
#49 = PERSON_AND_ORGANIZATION ( #65, #37 ) ;
#50 = EDGE_LOOP ( 'NONE', ( #15 ) ) ;
#51 = MANIFOLD_SOLID_BREP ( 'Corps-Déplacer/Copier1[1]', #210 ) ;
#52 = CLOSED_SHELL ( 'NONE', ( #55, #87, #195 ) ) ;
#53 = EDGE_LOOP ( 'NONE', ( #57 ) ) ;
#54 = EDGE_LOOP ( 'NONE', ( #204 ) ) ;
#55 = ADVANCED_FACE ( 'NONE', ( #39 ), #196, .T. ) ;
#56 = APPROVAL_PERSON_ORGANIZATION ( #238, #40, #14 ) ;
#57 = ORIENTED_EDGE ( 'NONE', *, *, #114, .T. ) ;
#58 = EDGE_LOOP ( 'NONE', ( #35 ) ) ;
#59 = CALENDAR_DATE ( 2021, 1, 11 ) ;
#60 = DIRECTION ( 'NONE',  ( 0.0000000000000000000, 1.000000000000000000, 0.0000000000000000000 ) ) ;
#61 = CIRCLE ( 'NONE', #102, 0.2000000000000000944 ) ;
#62 = CARTESIAN_POINT ( 'NONE',  ( 1.326762908760390423E-13, -4.653657836759941941E-15, 38.00000000000000000 ) ) ;
#63 = DIRECTION ( 'NONE',  ( 3.491481338843133355E-15, -1.219242935835426903E-16, 1.000000000000000000 ) ) ;
#64 = SECURITY_CLASSIFICATION ( '', '', #48 ) ;
#65 = PERSON ( 'UNSPECIFIED', 'UNSPECIFIED', 'UNSPECIFIED', ('UNSPECIFIED'), ('UNSPECIFIED'), ('UNSPECIFIED') ) ;
#66 = ADVANCED_FACE ( 'NONE', ( #229, #122 ), #180, .T. ) ;
#67 = AXIS2_PLACEMENT_3D ( 'NONE', #22, #99, #23 ) ;
#68 = COORDINATED_UNIVERSAL_TIME_OFFSET ( 1, 0, .AHEAD. ) ;
#69 = APPROVAL_DATE_TIME ( #168, #159 ) ;
#70 = FACE_BOUND ( 'NONE', #155, .T. ) ;
#71 = ORIENTED_EDGE ( 'NONE', *, *, #1, .T. ) ;
#72 = CC_DESIGN_APPROVAL ( #29, ( #32 ) ) ;
#73 = SHAPE_DEFINITION_REPRESENTATION ( #104, #118 ) ;
#74 = EDGE_LOOP ( 'NONE', ( #71 ) ) ;
#75 = CC_DESIGN_APPROVAL ( #159, ( #64 ) ) ;
#76 = CARTESIAN_POINT ( 'NONE',  ( 3.787217438031860854E-14, -1.322515476861481259E-15, 10.84702185258339746 ) ) ;
#77 = DIRECTION ( 'NONE',  ( -3.491481338843133355E-15, 1.224646799147353207E-16, -1.000000000000000000 ) ) ;
#78 = DIRECTION ( 'NONE',  ( 3.491481338843133355E-15, -1.219242935835426903E-16, 1.000000000000000000 ) ) ;
#79 =( GEOMETRIC_REPRESENTATION_CONTEXT ( 3 ) GLOBAL_UNCERTAINTY_ASSIGNED_CONTEXT ( ( #116 ) ) GLOBAL_UNIT_ASSIGNED_CONTEXT ( ( #235, #27, #145 ) ) REPRESENTATION_CONTEXT ( 'NONE', 'WORKASPACE' ) );
#80 = PLANE ( 'NONE',  #156 ) ;
#81 = CARTESIAN_POINT ( 'NONE',  ( -4.574772834392781708E-30, 1.597533803011344641E-31, -1.310267015749992777E-15 ) ) ;
#82 = ADVANCED_FACE ( 'NONE', ( #5, #9 ), #176, .T. ) ;
#83 = VERTEX_POINT ( 'NONE', #26 ) ;
#84 = VERTEX_POINT ( 'NONE', #184 ) ;
#85 = CIRCLE ( 'NONE', #33, 1.499999999999992895 ) ;
#86 = CARTESIAN_POINT ( 'NONE',  ( 2.484178863007707128E-14, -1.499999999999991562, 7.114971045014418571 ) ) ;
#87 = ADVANCED_FACE ( 'NONE', ( #101, #21 ), #158, .T. ) ;
#88 = PERSON_AND_ORGANIZATION_ROLE ( 'design_owner' ) ;
#89 = DIRECTION ( 'NONE',  ( -4.275831445896958607E-31, -1.000000000000000000, -1.224646799147353207E-16 ) ) ;
#90 = AXIS2_PLACEMENT_3D ( 'NONE', #106, #164, #103 ) ;
#91 = COORDINATED_UNIVERSAL_TIME_OFFSET ( 1, 0, .AHEAD. ) ;
#92 = DIRECTION ( 'NONE',  ( 3.491481338843133355E-15, -1.219242935835426903E-16, 1.000000000000000000 ) ) ;
#93 = PERSON_AND_ORGANIZATION ( #65, #37 ) ;
#94 = EDGE_LOOP ( 'NONE', ( #203 ) ) ;
#95 = APPROVAL_PERSON_ORGANIZATION ( #20, #159, #13 ) ;
#96 = CC_DESIGN_PERSON_AND_ORGANIZATION_ASSIGNMENT ( #219, #194, ( #113 ) ) ;
#97 = DIRECTION ( 'NONE',  ( 0.0000000000000000000, -1.000000000000000000, 0.0000000000000000000 ) ) ;
#98 = AXIS2_PLACEMENT_3D ( 'NONE', #231, #192, #140 ) ;
#99 = DIRECTION ( 'NONE',  ( -3.491481338843133355E-15, 1.224646799147353207E-16, -1.000000000000000000 ) ) ;
#100 = FACE_OUTER_BOUND ( 'NONE', #53, .T. ) ;
#101 = FACE_OUTER_BOUND ( 'NONE', #94, .T. ) ;
#102 = AXIS2_PLACEMENT_3D ( 'NONE', #81, #161, #232 ) ;
#103 = DIRECTION ( 'NONE',  ( -4.275831445896958607E-31, -1.000000000000000000, -1.224646799147353207E-16 ) ) ;
#104 = PRODUCT_DEFINITION_SHAPE ( 'NONE', 'NONE',  #32 ) ;
#105 = CONICAL_SURFACE ( 'NONE', #46, 2.499999999999992006, 0.2617993877991428575 ) ;
#106 = CARTESIAN_POINT ( 'NONE',  ( -1.924129419174264339E-30, 6.748937501461144163E-32, -5.510925685805913103E-16 ) ) ;
#107 = DATE_TIME_ROLE ( 'classification_date' ) ;
#108 = ADVANCED_FACE ( 'NONE', ( #6 ), #80, .F. ) ;
#109 = LOCAL_TIME ( 10, 45, 58.00000000000000000, #133 ) ;
#110 = DATE_AND_TIME ( #131, #109 ) ;
#111 = DIRECTION ( 'NONE',  ( 0.0000000000000000000, 0.0000000000000000000, 1.000000000000000000 ) ) ;
#112 = EDGE_LOOP ( 'NONE', ( #172 ) ) ;
#113 = PRODUCT_DEFINITION_FORMATION_WITH_SPECIFIED_SOURCE ( 'ANY', '', #183, .NOT_KNOWN. ) ;
#114 = EDGE_CURVE ( 'NONE', #47, #47, #197, .T. ) ;
#115 = CARTESIAN_POINT ( 'NONE',  ( 6.982962677686266711E-15, 1.124819836996384311E-32, 2.000000000000000000 ) ) ;
#116 = UNCERTAINTY_MEASURE_WITH_UNIT (LENGTH_MEASURE( 1.000000000000000082E-05 ), #235, 'distance_accuracy_value', 'NONE');
#117 = APPROVAL_STATUS ( 'not_yet_approved' ) ;
#118 = ADVANCED_BREP_SHAPE_REPRESENTATION ( '60124', ( #51, #139, #217 ), #79 ) ;
#119 = CARTESIAN_POINT ( 'NONE',  ( 6.982962677686263555E-15, -2.438485871670852819E-16, 1.999999999999999112 ) ) ;
#120 = CC_DESIGN_PERSON_AND_ORGANIZATION_ASSIGNMENT ( #49, #88, ( #183 ) ) ;
#121 = CIRCLE ( 'NONE', #126, 0.1999999999999999001 ) ;
#122 = FACE_BOUND ( 'NONE', #224, .T. ) ;
#123 = DIRECTION ( 'NONE',  ( -3.491481338843133355E-15, 1.219242935835426903E-16, -1.000000000000000000 ) ) ;
#124 = CIRCLE ( 'NONE', #136, 0.2681483474218600005 ) ;
#125 = CARTESIAN_POINT ( 'NONE',  ( 6.982962677686263555E-15, -0.2000000000000001499, 1.999999999999999112 ) ) ;
#126 = AXIS2_PLACEMENT_3D ( 'NONE', #119, #63, #7 ) ;
#127 = PRODUCT_RELATED_PRODUCT_CATEGORY ( 'detail', '', ( #183 ) ) ;
#128 = APPROVAL_STATUS ( 'not_yet_approved' ) ;
#129 = VERTEX_POINT ( 'NONE', #214 ) ;
#130 = PERSON_AND_ORGANIZATION ( #65, #37 ) ;
#131 = CALENDAR_DATE ( 2021, 1, 11 ) ;
#132 = CARTESIAN_POINT ( 'NONE',  ( 6.982962677686263555E-15, -2.438485871670852819E-16, 1.999999999999999112 ) ) ;
#133 = COORDINATED_UNIVERSAL_TIME_OFFSET ( 1, 0, .AHEAD. ) ;
#134 = APPLICATION_CONTEXT ( 'configuration controlled 3d designs of mechanical parts and assemblies' ) ;
#135 = EDGE_LOOP ( 'NONE', ( #226 ) ) ;
#136 = AXIS2_PLACEMENT_3D ( 'NONE', #212, #19, #215 ) ;
#137 = EDGE_LOOP ( 'NONE', ( #18 ) ) ;
#138 = ORIENTED_EDGE ( 'NONE', *, *, #173, .T. ) ;
#139 = MANIFOLD_SOLID_BREP ( 'Corps-Déplacer/Copier1[2]', #52 ) ;
#140 = DIRECTION ( 'NONE',  ( 4.275831445896958607E-31, 1.000000000000000000, 1.224646799147353454E-16 ) ) ;
#141 = AXIS2_PLACEMENT_3D ( 'NONE', #208, #38, #177 ) ;
#142 = DIRECTION ( 'NONE',  ( -3.491481338843133355E-15, 1.224646799147353207E-16, -1.000000000000000000 ) ) ;
#143 = DIRECTION ( 'NONE',  ( 0.0000000000000000000, 1.000000000000000000, 0.0000000000000000000 ) ) ;
#144 = CC_DESIGN_SECURITY_CLASSIFICATION ( #64, ( #113 ) ) ;
#145 =( NAMED_UNIT ( * ) SI_UNIT ( $, .STERADIAN. ) SOLID_ANGLE_UNIT ( ) );
#146 = FACE_OUTER_BOUND ( 'NONE', #227, .T. ) ;
#147 = APPROVAL_DATE_TIME ( #110, #29 ) ;
#148 = DIRECTION ( 'NONE',  ( 3.491481338843133355E-15, -1.219242935835426903E-16, 1.000000000000000000 ) ) ;
#149 = AXIS2_PLACEMENT_3D ( 'NONE', #115, #181, #228 ) ;
#150 = EDGE_CURVE ( 'NONE', #129, #129, #85, .T. ) ;
#151 = DATE_AND_TIME ( #242, #243 ) ;
#152 = MECHANICAL_CONTEXT ( 'NONE', #153, 'mechanical' ) ;
#153 = APPLICATION_CONTEXT ( 'configuration controlled 3d designs of mechanical parts and assemblies' ) ;
#154 = PERSON_AND_ORGANIZATION_ROLE ( 'classification_officer' ) ;
#155 = EDGE_LOOP ( 'NONE', ( #138 ) ) ;
#156 = AXIS2_PLACEMENT_3D ( 'NONE', #3, #211, #41 ) ;
#157 = EDGE_CURVE ( 'NONE', #83, #83, #61, .T. ) ;
#158 = CYLINDRICAL_SURFACE ( 'NONE', #141, 0.1999999999999999833 ) ;
#159 = APPROVAL ( #240, 'UNSPECIFIED' ) ;
#160 = DIRECTION ( 'NONE',  ( 0.0000000000000000000, -1.000000000000000000, 0.0000000000000000000 ) ) ;
#161 = DIRECTION ( 'NONE',  ( 3.491481338843133355E-15, -1.219242935835426903E-16, 1.000000000000000000 ) ) ;
#162 = PLANE ( 'NONE',  #90 ) ;
#163 = AXIS2_PLACEMENT_3D ( 'NONE', #132, #92, #169 ) ;
#164 = DIRECTION ( 'NONE',  ( 3.491481338843133355E-15, -1.224646799147353207E-16, 1.000000000000000000 ) ) ;
#165 = CARTESIAN_POINT ( 'NONE',  ( 8.790286409911523091E-15, -0.2681483474218603336, 2.517638090205028600 ) ) ;
#166 = FACE_OUTER_BOUND ( 'NONE', #54, .T. ) ;
#167 = CARTESIAN_POINT ( 'NONE',  ( 0.0000000000000000000, 0.0000000000000000000, 0.0000000000000000000 ) ) ;
#168 = DATE_AND_TIME ( #59, #8 ) ;
#169 = DIRECTION ( 'NONE',  ( 0.0000000000000000000, -1.000000000000000000, 0.0000000000000000000 ) ) ;
#170 = COORDINATED_UNIVERSAL_TIME_OFFSET ( 1, 0, .AHEAD. ) ;
#171 = PERSON_AND_ORGANIZATION ( #65, #37 ) ;
#172 = ORIENTED_EDGE ( 'NONE', *, *, #150, .F. ) ;
#173 = EDGE_CURVE ( 'NONE', #234, #234, #124, .T. ) ;
#174 = DESIGN_CONTEXT ( 'detailed design', #134, 'design' ) ;
#175 = AXIS2_PLACEMENT_3D ( 'NONE', #45, #148, #10 ) ;
#176 = CYLINDRICAL_SURFACE ( 'NONE', #98, 1.499999999999990674 ) ;
#177 = DIRECTION ( 'NONE',  ( -4.256963957985708889E-31, -1.000000000000000000, -1.219242935835426903E-16 ) ) ;
#178 = ADVANCED_FACE ( 'NONE', ( #166 ), #185, .F. ) ;
#179 = CC_DESIGN_DATE_AND_TIME_ASSIGNMENT ( #36, #30, ( #32 ) ) ;
#180 = CONICAL_SURFACE ( 'NONE', #205, 1.199999999999992184, 0.7853981633974468357 ) ;
#181 = DIRECTION ( 'NONE',  ( 3.491481338843133355E-15, -1.224646799147353207E-16, 1.000000000000000000 ) ) ;
#182 = CARTESIAN_POINT ( 'NONE',  ( 1.326762908760390423E-13, 1.199999999999987521, 38.00000000000000000 ) ) ;
#183 = PRODUCT ( '60124', '60124', '', ( #152 ) ) ;
#184 = CARTESIAN_POINT ( 'NONE',  ( 6.982962677686263555E-15, -0.2000000000000001499, 1.999999999999999112 ) ) ;
#185 = PLANE ( 'NONE',  #213 ) ;
#186 = COORDINATED_UNIVERSAL_TIME_OFFSET ( 1, 0, .AHEAD. ) ;
#187 = CC_DESIGN_PERSON_AND_ORGANIZATION_ASSIGNMENT ( #130, #28, ( #113 ) ) ;
#188 = APPROVAL_ROLE ( '' ) ;
#189 = APPROVAL_PERSON_ORGANIZATION ( #171, #29, #188 ) ;
#190 = APPLICATION_PROTOCOL_DEFINITION ( 'international standard', 'config_control_design', 1994, #153 ) ;
#191 = TOROIDAL_SURFACE ( 'NONE', #175, 2.200000000000000178, 2.000000000000000000 ) ;
#192 = DIRECTION ( 'NONE',  ( -3.491481338843133355E-15, 1.224646799147353207E-16, -1.000000000000000000 ) ) ;
#193 = CC_DESIGN_DATE_AND_TIME_ASSIGNMENT ( #236, #107, ( #64 ) ) ;
#194 = PERSON_AND_ORGANIZATION_ROLE ( 'design_supplier' ) ;
#195 = ADVANCED_FACE ( 'NONE', ( #239 ), #162, .F. ) ;
#196 = PLANE ( 'NONE',  #149 ) ;
#197 = CIRCLE ( 'NONE', #11, 1.499999999999990674 ) ;
#198 = LOCAL_TIME ( 10, 45, 58.00000000000000000, #170 ) ;
#199 = CALENDAR_DATE ( 2021, 1, 11 ) ;
#200 = APPROVAL_DATE_TIME ( #151, #40 ) ;
#201 = PERSON_AND_ORGANIZATION_ROLE ( 'creator' ) ;
#202 = LOCAL_TIME ( 10, 45, 58.00000000000000000, #186 ) ;
#203 = ORIENTED_EDGE ( 'NONE', *, *, #157, .T. ) ;
#204 = ORIENTED_EDGE ( 'NONE', *, *, #1, .F. ) ;
#205 = AXIS2_PLACEMENT_3D ( 'NONE', #62, #142, #60 ) ;
#206 = ORIENTED_EDGE ( 'NONE', *, *, #173, .F. ) ;
#207 = APPLICATION_PROTOCOL_DEFINITION ( 'international standard', 'config_control_design', 1994, #134 ) ;
#208 = CARTESIAN_POINT ( 'NONE',  ( 0.0000000000000000000, 0.0000000000000000000, 0.0000000000000000000 ) ) ;
#209 = CARTESIAN_POINT ( 'NONE',  ( 2.484178863007707128E-14, -8.674878185307435262E-16, 7.114971045014418571 ) ) ;
#210 = CLOSED_SHELL ( 'NONE', ( #82, #66, #108, #4, #225, #178 ) ) ;
#211 = DIRECTION ( 'NONE',  ( -3.491481338843133355E-15, 1.224646799147353207E-16, -1.000000000000000000 ) ) ;
#212 = CARTESIAN_POINT ( 'NONE',  ( 8.790286409911523091E-15, -3.069612456472676549E-16, 2.517638090205028600 ) ) ;
#213 = AXIS2_PLACEMENT_3D ( 'NONE', #12, #25, #89 ) ;
#214 = CARTESIAN_POINT ( 'NONE',  ( 1.316288464743861212E-13, 1.499999999999988232, 37.69999999999999574 ) ) ;
#215 = DIRECTION ( 'NONE',  ( 0.0000000000000000000, -1.000000000000000000, 0.0000000000000000000 ) ) ;
#216 = CC_DESIGN_PERSON_AND_ORGANIZATION_ASSIGNMENT ( #16, #201, ( #32 ) ) ;
#217 = AXIS2_PLACEMENT_3D ( 'NONE', #167, #111, #221 ) ;
#218 = VERTEX_POINT ( 'NONE', #182 ) ;
#219 = PERSON_AND_ORGANIZATION ( #65, #37 ) ;
#220 = ORIENTED_EDGE ( 'NONE', *, *, #17, .T. ) ;
#221 = DIRECTION ( 'NONE',  ( 1.000000000000000000, 0.0000000000000000000, 0.0000000000000000000 ) ) ;
#222 = CIRCLE ( 'NONE', #67, 1.199999999999992184 ) ;
#223 = ORIENTED_EDGE ( 'NONE', *, *, #114, .F. ) ;
#224 = EDGE_LOOP ( 'NONE', ( #220 ) ) ;
#225 = ADVANCED_FACE ( 'NONE', ( #237, #146 ), #191, .F. ) ;
#226 = ORIENTED_EDGE ( 'NONE', *, *, #150, .T. ) ;
#227 = EDGE_LOOP ( 'NONE', ( #206 ) ) ;
#228 = DIRECTION ( 'NONE',  ( -4.275831445896958607E-31, -1.000000000000000000, -1.224646799147353207E-16 ) ) ;
#229 = FACE_OUTER_BOUND ( 'NONE', #112, .T. ) ;
#230 = CIRCLE ( 'NONE', #163, 0.1999999999999999001 ) ;
#231 = CARTESIAN_POINT ( 'NONE',  ( 0.0000000000000000000, 0.0000000000000000000, 0.0000000000000000000 ) ) ;
#232 = DIRECTION ( 'NONE',  ( -4.256963957985703634E-31, -1.000000000000000000, -1.219242935835422958E-16 ) ) ;
#233 = CC_DESIGN_PERSON_AND_ORGANIZATION_ASSIGNMENT ( #93, #154, ( #64 ) ) ;
#234 = VERTEX_POINT ( 'NONE', #165 ) ;
#235 =( LENGTH_UNIT ( ) NAMED_UNIT ( * ) SI_UNIT ( .MILLI., .METRE. ) );
#236 = DATE_AND_TIME ( #241, #198 ) ;
#237 = FACE_OUTER_BOUND ( 'NONE', #74, .T. ) ;
#238 = PERSON_AND_ORGANIZATION ( #65, #37 ) ;
#239 = FACE_OUTER_BOUND ( 'NONE', #31, .T. ) ;
#240 = APPROVAL_STATUS ( 'not_yet_approved' ) ;
#241 = CALENDAR_DATE ( 2021, 1, 11 ) ;
#242 = CALENDAR_DATE ( 2021, 1, 11 ) ;
#243 = LOCAL_TIME ( 10, 45, 58.00000000000000000, #68 ) ;
ENDSEC;
END-ISO-10303-21;
