ISO-10303-21;
HEADER;
FILE_DESCRIPTION (( 'STEP AP203' ),
    '1' );
FILE_NAME ('60123.step',
    '2021-11-01T09:45:57',
    ( '' ),
    ( '' ),
    'SwSTEP 2.0',
    'SolidWorks 2019',
    '' );
FILE_SCHEMA (( 'CONFIG_CONTROL_DESIGN' ));
ENDSEC;

DATA;
#1 =( NAMED_UNIT ( * ) PLANE_ANGLE_UNIT ( ) SI_UNIT ( $, .RADIAN. ) );
#2 = AXIS2_PLACEMENT_3D ( 'NONE', #168, #214, #83 ) ;
#3 = SECURITY_CLASSIFICATION_LEVEL ( 'unclassified' ) ;
#4 = APPROVAL_ROLE ( '' ) ;
#5 = DIRECTION ( 'NONE',  ( -3.491481338843133355E-15, 1.224646799147353207E-16, -1.000000000000000000 ) ) ;
#6 = SECURITY_CLASSIFICATION ( '', '', #3 ) ;
#7 = ORIENTED_EDGE ( 'NONE', *, *, #96, .F. ) ;
#8 = COORDINATED_UNIVERSAL_TIME_OFFSET ( 1, 0, .AHEAD. ) ;
#9 = EDGE_LOOP ( 'NONE', ( #192 ) ) ;
#10 = CARTESIAN_POINT ( 'NONE',  ( -4.574772834392781708E-30, 1.597533803011344641E-31, -1.310267015749992777E-15 ) ) ;
#11 = DIRECTION ( 'NONE',  ( -4.275831445896958607E-31, -1.000000000000000000, -1.224646799147353207E-16 ) ) ;
#12 = CC_DESIGN_APPROVAL ( #106, ( #49 ) ) ;
#13 = PLANE ( 'NONE',  #206 ) ;
#14 = CARTESIAN_POINT ( 'NONE',  ( 2.793185071074506290E-15, -1.156482317317874437E-16, 0.7999999999999998224 ) ) ;
#15 = EDGE_CURVE ( 'NONE', #126, #126, #229, .T. ) ;
#16 = APPLICATION_CONTEXT ( 'configuration controlled 3d designs of mechanical parts and assemblies' ) ;
#17 = CLOSED_SHELL ( 'NONE', ( #70, #43, #157, #198, #217, #149 ) ) ;
#18 = CALENDAR_DATE ( 2021, 1, 11 ) ;
#19 = EDGE_LOOP ( 'NONE', ( #134 ) ) ;
#20 = CC_DESIGN_DATE_AND_TIME_ASSIGNMENT ( #209, #122, ( #6 ) ) ;
#21 = AXIS2_PLACEMENT_3D ( 'NONE', #53, #142, #93 ) ;
#22 =( NAMED_UNIT ( * ) SI_UNIT ( $, .STERADIAN. ) SOLID_ANGLE_UNIT ( ) );
#23 = CARTESIAN_POINT ( 'NONE',  ( 0.0000000000000000000, 0.0000000000000000000, 0.0000000000000000000 ) ) ;
#24 = ADVANCED_FACE ( 'NONE', ( #82, #48 ), #153, .T. ) ;
#25 = TOROIDAL_SURFACE ( 'NONE', #132, 2.200000000000000178, 2.000000000000000000 ) ;
#26 = APPROVAL_ROLE ( '' ) ;
#27 = DIRECTION ( 'NONE',  ( -3.491481338843133355E-15, 1.224646799147353207E-16, -1.000000000000000000 ) ) ;
#28 = COORDINATED_UNIVERSAL_TIME_OFFSET ( 1, 0, .AHEAD. ) ;
#29 = EDGE_LOOP ( 'NONE', ( #211 ) ) ;
#30 = APPLICATION_CONTEXT ( 'configuration controlled 3d designs of mechanical parts and assemblies' ) ;
#31 = APPROVAL_STATUS ( 'not_yet_approved' ) ;
#32 = PLANE ( 'NONE',  #2 ) ;
#33 = FACE_OUTER_BOUND ( 'NONE', #60, .T. ) ;
#34 = CARTESIAN_POINT ( 'NONE',  ( 2.793185071074504318E-15, -0.2000000000000003164, 0.7999999999999992673 ) ) ;
#35 = DIRECTION ( 'NONE',  ( -4.256963957985703634E-31, -1.000000000000000000, -1.219242935835422958E-16 ) ) ;
#36 = CARTESIAN_POINT ( 'NONE',  ( 1.326762908760390423E-13, 1.199999999999987521, 38.00000000000000000 ) ) ;
#37 = PERSON_AND_ORGANIZATION ( #190, #215 ) ;
#38 = DIRECTION ( 'NONE',  ( 1.000000000000000000, 0.0000000000000000000, 0.0000000000000000000 ) ) ;
#39 = PERSON_AND_ORGANIZATION_ROLE ( 'creator' ) ;
#40 = AXIS2_PLACEMENT_3D ( 'NONE', #129, #91, #216 ) ;
#41 = CC_DESIGN_PERSON_AND_ORGANIZATION_ASSIGNMENT ( #171, #208, ( #49 ) ) ;
#42 = DIRECTION ( 'NONE',  ( 3.491481338843133355E-15, -1.219242935835426903E-16, 1.000000000000000000 ) ) ;
#43 = ADVANCED_FACE ( 'NONE', ( #230, #89 ), #127, .T. ) ;
#44 = AXIS2_PLACEMENT_3D ( 'NONE', #220, #73, #218 ) ;
#45 = UNCERTAINTY_MEASURE_WITH_UNIT (LENGTH_MEASURE( 1.000000000000000082E-05 ), #161, 'distance_accuracy_value', 'NONE');
#46 = PERSON_AND_ORGANIZATION ( #190, #215 ) ;
#47 = COORDINATED_UNIVERSAL_TIME_OFFSET ( 1, 0, .AHEAD. ) ;
#48 = FACE_OUTER_BOUND ( 'NONE', #139, .T. ) ;
#49 = PRODUCT_DEFINITION_FORMATION_WITH_SPECIFIED_SOURCE ( 'ANY', '', #175, .NOT_KNOWN. ) ;
#50 = CARTESIAN_POINT ( 'NONE',  ( 4.600508803299760698E-15, -0.2681483474218604446, 1.317638090205028201 ) ) ;
#51 = LOCAL_TIME ( 10, 45, 57.00000000000000000, #8 ) ;
#52 = APPROVAL ( #31, 'UNSPECIFIED' ) ;
#53 = CARTESIAN_POINT ( 'NONE',  ( 2.065201102346530494E-14, -7.211786662304921203E-16, 5.914971045014417506 ) ) ;
#54 = FACE_BOUND ( 'NONE', #19, .T. ) ;
#55 = APPLICATION_PROTOCOL_DEFINITION ( 'international standard', 'config_control_design', 1994, #16 ) ;
#56 = CIRCLE ( 'NONE', #94, 0.2000000000000002054 ) ;
#57 = ORIENTED_EDGE ( 'NONE', *, *, #164, .F. ) ;
#58 = CC_DESIGN_PERSON_AND_ORGANIZATION_ASSIGNMENT ( #133, #182, ( #175 ) ) ;
#59 = CC_DESIGN_APPROVAL ( #128, ( #137 ) ) ;
#60 = EDGE_LOOP ( 'NONE', ( #188 ) ) ;
#61 = APPROVAL_DATE_TIME ( #65, #106 ) ;
#62 = DIRECTION ( 'NONE',  ( -3.491481338843133355E-15, 1.224646799147353207E-16, -1.000000000000000000 ) ) ;
#63 = AXIS2_PLACEMENT_3D ( 'NONE', #152, #5, #193 ) ;
#64 = CARTESIAN_POINT ( 'NONE',  ( 1.316288464743861212E-13, -4.616918432785521081E-15, 37.69999999999999574 ) ) ;
#65 = DATE_AND_TIME ( #167, #226 ) ;
#66 = EDGE_LOOP ( 'NONE', ( #140 ) ) ;
#67 = ADVANCED_FACE ( 'NONE', ( #194 ), #32, .F. ) ;
#68 = EDGE_LOOP ( 'NONE', ( #7 ) ) ;
#69 = FACE_OUTER_BOUND ( 'NONE', #97, .T. ) ;
#70 = ADVANCED_FACE ( 'NONE', ( #150, #33 ), #107, .T. ) ;
#71 = VERTEX_POINT ( 'NONE', #50 ) ;
#72 = AXIS2_PLACEMENT_3D ( 'NONE', #10, #141, #35 ) ;
#73 = DIRECTION ( 'NONE',  ( -3.491481338843133355E-15, 1.224646799147353207E-16, -1.000000000000000000 ) ) ;
#74 = DIRECTION ( 'NONE',  ( 0.0000000000000000000, -1.000000000000000000, 0.0000000000000000000 ) ) ;
#75 = APPROVAL_DATE_TIME ( #130, #128 ) ;
#76 = AXIS2_PLACEMENT_3D ( 'NONE', #14, #154, #11 ) ;
#77 = ORIENTED_EDGE ( 'NONE', *, *, #98, .T. ) ;
#78 = CALENDAR_DATE ( 2021, 1, 11 ) ;
#79 = CONICAL_SURFACE ( 'NONE', #40, 2.499999999999991562, 0.2617993877991429130 ) ;
#80 = APPROVAL_DATE_TIME ( #105, #52 ) ;
#81 = SHAPE_DEFINITION_REPRESENTATION ( #90, #236 ) ;
#82 = FACE_OUTER_BOUND ( 'NONE', #66, .T. ) ;
#83 = DIRECTION ( 'NONE',  ( -4.275831445896958607E-31, -1.000000000000000000, -1.224646799147353207E-16 ) ) ;
#84 = LOCAL_TIME ( 10, 45, 57.00000000000000000, #224 ) ;
#85 = CC_DESIGN_SECURITY_CLASSIFICATION ( #6, ( #49 ) ) ;
#86 = APPROVAL_STATUS ( 'not_yet_approved' ) ;
#87 = ORIENTED_EDGE ( 'NONE', *, *, #119, .F. ) ;
#88 = PERSON_AND_ORGANIZATION ( #190, #215 ) ;
#89 = FACE_BOUND ( 'NONE', #9, .T. ) ;
#90 = PRODUCT_DEFINITION_SHAPE ( 'NONE', 'NONE',  #137 ) ;
#91 = DIRECTION ( 'NONE',  ( 3.491481338843133355E-15, -1.219242935835426903E-16, 1.000000000000000000 ) ) ;
#92 = APPROVAL_PERSON_ORGANIZATION ( #162, #128, #148 ) ;
#93 = DIRECTION ( 'NONE',  ( 0.0000000000000000000, -1.000000000000000000, 0.0000000000000000000 ) ) ;
#94 = AXIS2_PLACEMENT_3D ( 'NONE', #136, #159, #177 ) ;
#95 = DIRECTION ( 'NONE',  ( 3.491481338843133355E-15, -1.219242935835426903E-16, 1.000000000000000000 ) ) ;
#96 = EDGE_CURVE ( 'NONE', #199, #199, #200, .T. ) ;
#97 = EDGE_LOOP ( 'NONE', ( #181 ) ) ;
#98 = EDGE_CURVE ( 'NONE', #237, #237, #56, .T. ) ;
#99 = CIRCLE ( 'NONE', #138, 0.2000000000000002054 ) ;
#100 = COORDINATED_UNIVERSAL_TIME_OFFSET ( 1, 0, .AHEAD. ) ;
#101 = DIRECTION ( 'NONE',  ( 0.0000000000000000000, 0.0000000000000000000, 1.000000000000000000 ) ) ;
#102 = DIRECTION ( 'NONE',  ( 0.0000000000000000000, 1.000000000000000000, 0.0000000000000000000 ) ) ;
#103 = CALENDAR_DATE ( 2021, 1, 11 ) ;
#104 = DIRECTION ( 'NONE',  ( -4.256963957985708889E-31, -1.000000000000000000, -1.219242935835426903E-16 ) ) ;
#105 = DATE_AND_TIME ( #228, #51 ) ;
#106 = APPROVAL ( #86, 'UNSPECIFIED' ) ;
#107 = CYLINDRICAL_SURFACE ( 'NONE', #124, 1.499999999999990452 ) ;
#108 = FACE_OUTER_BOUND ( 'NONE', #196, .T. ) ;
#109 = LOCAL_TIME ( 10, 45, 57.00000000000000000, #100 ) ;
#110 = DIRECTION ( 'NONE',  ( -4.275831445896958607E-31, -1.000000000000000000, -1.224646799147353207E-16 ) ) ;
#111 = MANIFOLD_SOLID_BREP ( 'Corps-Déplacer/Copier1[1]', #17 ) ;
#112 = CARTESIAN_POINT ( 'NONE',  ( 2.793185071074504318E-15, -9.753943486683406100E-17, 0.7999999999999992673 ) ) ;
#113 = EDGE_CURVE ( 'NONE', #71, #71, #184, .T. ) ;
#114 = FACE_OUTER_BOUND ( 'NONE', #29, .T. ) ;
#115 = VERTEX_POINT ( 'NONE', #186 ) ;
#116 = EDGE_LOOP ( 'NONE', ( #173 ) ) ;
#117 = CARTESIAN_POINT ( 'NONE',  ( 0.0000000000000000000, 0.0000000000000000000, 0.0000000000000000000 ) ) ;
#118 = APPROVAL_PERSON_ORGANIZATION ( #37, #106, #4 ) ;
#119 = EDGE_CURVE ( 'NONE', #225, #225, #223, .T. ) ;
#120 = DIRECTION ( 'NONE',  ( 0.0000000000000000000, 1.000000000000000000, 0.0000000000000000000 ) ) ;
#121 = PRODUCT_RELATED_PRODUCT_CATEGORY ( 'detail', '', ( #175 ) ) ;
#122 = DATE_TIME_ROLE ( 'classification_date' ) ;
#123 = CARTESIAN_POINT ( 'NONE',  ( 0.0000000000000000000, 0.0000000000000000000, 0.0000000000000000000 ) ) ;
#124 = AXIS2_PLACEMENT_3D ( 'NONE', #117, #62, #191 ) ;
#125 = CARTESIAN_POINT ( 'NONE',  ( 2.793185071074504318E-15, 0.0000000000000000000, 0.7999999999999992673 ) ) ;
#126 = VERTEX_POINT ( 'NONE', #36 ) ;
#127 = CONICAL_SURFACE ( 'NONE', #63, 1.199999999999992184, 0.7853981633974468357 ) ;
#128 = APPROVAL ( #207, 'UNSPECIFIED' ) ;
#129 = CARTESIAN_POINT ( 'NONE',  ( 3.368239677370683589E-14, -1.176206324561229754E-15, 9.647021852583394619 ) ) ;
#130 = DATE_AND_TIME ( #78, #84 ) ;
#131 = CARTESIAN_POINT ( 'NONE',  ( 2.065201102346530494E-14, -1.499999999999991118, 5.914971045014417506 ) ) ;
#132 = AXIS2_PLACEMENT_3D ( 'NONE', #125, #145, #197 ) ;
#133 = PERSON_AND_ORGANIZATION ( #190, #215 ) ;
#134 = ORIENTED_EDGE ( 'NONE', *, *, #113, .T. ) ;
#135 = DESIGN_CONTEXT ( 'detailed design', #30, 'design' ) ;
#136 = CARTESIAN_POINT ( 'NONE',  ( 2.793185071074504318E-15, -9.753943486683406100E-17, 0.7999999999999992673 ) ) ;
#137 = PRODUCT_DEFINITION ( 'UNKNOWN', '', #49, #135 ) ;
#138 = AXIS2_PLACEMENT_3D ( 'NONE', #112, #238, #74 ) ;
#139 = EDGE_LOOP ( 'NONE', ( #151 ) ) ;
#140 = ORIENTED_EDGE ( 'NONE', *, *, #119, .T. ) ;
#141 = DIRECTION ( 'NONE',  ( 3.491481338843133355E-15, -1.219242935835426903E-16, 1.000000000000000000 ) ) ;
#142 = DIRECTION ( 'NONE',  ( -3.491481338843133355E-15, 1.219242935835426903E-16, -1.000000000000000000 ) ) ;
#143 = CC_DESIGN_DATE_AND_TIME_ASSIGNMENT ( #160, #241, ( #137 ) ) ;
#144 = APPROVAL_PERSON_ORGANIZATION ( #88, #52, #26 ) ;
#145 = DIRECTION ( 'NONE',  ( 3.491481338843133355E-15, -1.219242935835426903E-16, 1.000000000000000000 ) ) ;
#146 = PLANE ( 'NONE',  #44 ) ;
#147 = CARTESIAN_POINT ( 'NONE',  ( -4.659912113552496113E-30, -0.2000000000000000944, -1.334651874466701196E-15 ) ) ;
#148 = APPROVAL_ROLE ( '' ) ;
#149 = ADVANCED_FACE ( 'NONE', ( #234 ), #13, .F. ) ;
#150 = FACE_OUTER_BOUND ( 'NONE', #204, .T. ) ;
#151 = ORIENTED_EDGE ( 'NONE', *, *, #98, .F. ) ;
#152 = CARTESIAN_POINT ( 'NONE',  ( 1.326762908760390423E-13, -4.653657836759941941E-15, 38.00000000000000000 ) ) ;
#153 = CYLINDRICAL_SURFACE ( 'NONE', #203, 0.2000000000000001499 ) ;
#154 = DIRECTION ( 'NONE',  ( 3.491481338843133355E-15, -1.224646799147353207E-16, 1.000000000000000000 ) ) ;
#155 = CARTESIAN_POINT ( 'NONE',  ( 1.316288464743861212E-13, 1.499999999999988232, 37.69999999999999574 ) ) ;
#156 = FACE_OUTER_BOUND ( 'NONE', #116, .T. ) ;
#157 = ADVANCED_FACE ( 'NONE', ( #156 ), #146, .F. ) ;
#158 =( GEOMETRIC_REPRESENTATION_CONTEXT ( 3 ) GLOBAL_UNCERTAINTY_ASSIGNED_CONTEXT ( ( #45 ) ) GLOBAL_UNIT_ASSIGNED_CONTEXT ( ( #161, #1, #22 ) ) REPRESENTATION_CONTEXT ( 'NONE', 'WORKASPACE' ) );
#159 = DIRECTION ( 'NONE',  ( 3.491481338843133355E-15, -1.219242935835426903E-16, 1.000000000000000000 ) ) ;
#160 = DATE_AND_TIME ( #18, #109 ) ;
#161 =( LENGTH_UNIT ( ) NAMED_UNIT ( * ) SI_UNIT ( .MILLI., .METRE. ) );
#162 = PERSON_AND_ORGANIZATION ( #190, #215 ) ;
#163 = APPLICATION_PROTOCOL_DEFINITION ( 'international standard', 'config_control_design', 1994, #30 ) ;
#164 = EDGE_CURVE ( 'NONE', #115, #115, #99, .T. ) ;
#165 = CARTESIAN_POINT ( 'NONE',  ( 1.326762908760390423E-13, -4.653657836759941941E-15, 38.00000000000000000 ) ) ;
#166 = CC_DESIGN_PERSON_AND_ORGANIZATION_ASSIGNMENT ( #46, #212, ( #49 ) ) ;
#167 = CALENDAR_DATE ( 2021, 1, 11 ) ;
#168 = CARTESIAN_POINT ( 'NONE',  ( -1.924129419174264339E-30, 6.748937501461144163E-32, -5.510925685805913103E-16 ) ) ;
#169 = EDGE_LOOP ( 'NONE', ( #77 ) ) ;
#170 = CLOSED_SHELL ( 'NONE', ( #176, #24, #67 ) ) ;
#171 = PERSON_AND_ORGANIZATION ( #190, #215 ) ;
#172 = CC_DESIGN_PERSON_AND_ORGANIZATION_ASSIGNMENT ( #205, #39, ( #137 ) ) ;
#173 = ORIENTED_EDGE ( 'NONE', *, *, #15, .F. ) ;
#174 = AXIS2_PLACEMENT_3D ( 'NONE', #239, #95, #179 ) ;
#175 = PRODUCT ( '60123', '60123', '', ( #227 ) ) ;
#176 = ADVANCED_FACE ( 'NONE', ( #201 ), #178, .T. ) ;
#177 = DIRECTION ( 'NONE',  ( 0.0000000000000000000, -1.000000000000000000, 0.0000000000000000000 ) ) ;
#178 = PLANE ( 'NONE',  #76 ) ;
#179 = DIRECTION ( 'NONE',  ( 0.0000000000000000000, -1.000000000000000000, 0.0000000000000000000 ) ) ;
#180 = VERTEX_POINT ( 'NONE', #131 ) ;
#181 = ORIENTED_EDGE ( 'NONE', *, *, #221, .T. ) ;
#182 = PERSON_AND_ORGANIZATION_ROLE ( 'design_owner' ) ;
#183 = EDGE_LOOP ( 'NONE', ( #57 ) ) ;
#184 = CIRCLE ( 'NONE', #174, 0.2681483474218602781 ) ;
#185 = AXIS2_PLACEMENT_3D ( 'NONE', #64, #27, #102 ) ;
#186 = CARTESIAN_POINT ( 'NONE',  ( 2.793185071074504318E-15, -0.2000000000000003164, 0.7999999999999992673 ) ) ;
#187 = MANIFOLD_SOLID_BREP ( 'Corps-Déplacer/Copier1[2]', #170 ) ;
#188 = ORIENTED_EDGE ( 'NONE', *, *, #221, .F. ) ;
#189 = PERSON_AND_ORGANIZATION_ROLE ( 'classification_officer' ) ;
#190 = PERSON ( 'UNSPECIFIED', 'UNSPECIFIED', 'UNSPECIFIED', ('UNSPECIFIED'), ('UNSPECIFIED'), ('UNSPECIFIED') ) ;
#191 = DIRECTION ( 'NONE',  ( 4.275831445896958607E-31, 1.000000000000000000, 1.224646799147353454E-16 ) ) ;
#192 = ORIENTED_EDGE ( 'NONE', *, *, #15, .T. ) ;
#193 = DIRECTION ( 'NONE',  ( 0.0000000000000000000, 1.000000000000000000, 0.0000000000000000000 ) ) ;
#194 = FACE_OUTER_BOUND ( 'NONE', #210, .T. ) ;
#195 = CC_DESIGN_APPROVAL ( #52, ( #6 ) ) ;
#196 = EDGE_LOOP ( 'NONE', ( #243 ) ) ;
#197 = DIRECTION ( 'NONE',  ( -4.335997572281123836E-31, -1.000000000000000000, -1.219242935835426903E-16 ) ) ;
#198 = ADVANCED_FACE ( 'NONE', ( #54, #69 ), #79, .T. ) ;
#199 = VERTEX_POINT ( 'NONE', #155 ) ;
#200 = CIRCLE ( 'NONE', #185, 1.499999999999992895 ) ;
#201 = FACE_OUTER_BOUND ( 'NONE', #169, .T. ) ;
#202 = CARTESIAN_POINT ( 'NONE',  ( 2.793185071074506290E-15, -1.156482317317874437E-16, 0.7999999999999998224 ) ) ;
#203 = AXIS2_PLACEMENT_3D ( 'NONE', #123, #42, #104 ) ;
#204 = EDGE_LOOP ( 'NONE', ( #233 ) ) ;
#205 = PERSON_AND_ORGANIZATION ( #190, #215 ) ;
#206 = AXIS2_PLACEMENT_3D ( 'NONE', #202, #222, #110 ) ;
#207 = APPROVAL_STATUS ( 'not_yet_approved' ) ;
#208 = PERSON_AND_ORGANIZATION_ROLE ( 'creator' ) ;
#209 = DATE_AND_TIME ( #103, #242 ) ;
#210 = EDGE_LOOP ( 'NONE', ( #87 ) ) ;
#211 = ORIENTED_EDGE ( 'NONE', *, *, #113, .F. ) ;
#212 = PERSON_AND_ORGANIZATION_ROLE ( 'design_supplier' ) ;
#213 = DIRECTION ( 'NONE',  ( -3.491481338843133355E-15, 1.224646799147353207E-16, -1.000000000000000000 ) ) ;
#214 = DIRECTION ( 'NONE',  ( 3.491481338843133355E-15, -1.224646799147353207E-16, 1.000000000000000000 ) ) ;
#215 = ORGANIZATION ( 'UNSPECIFIED', 'UNSPECIFIED', '' ) ;
#216 = DIRECTION ( 'NONE',  ( 0.0000000000000000000, -1.000000000000000000, 0.0000000000000000000 ) ) ;
#217 = ADVANCED_FACE ( 'NONE', ( #108, #114 ), #25, .F. ) ;
#218 = DIRECTION ( 'NONE',  ( 4.275831445896958607E-31, 1.000000000000000000, 1.224646799147353207E-16 ) ) ;
#219 = CIRCLE ( 'NONE', #21, 1.499999999999990452 ) ;
#220 = CARTESIAN_POINT ( 'NONE',  ( 1.326762908760390423E-13, 8.998558695971017012E-33, 38.00000000000000000 ) ) ;
#221 = EDGE_CURVE ( 'NONE', #180, #180, #219, .T. ) ;
#222 = DIRECTION ( 'NONE',  ( 3.491481338843133355E-15, -1.224646799147353207E-16, 1.000000000000000000 ) ) ;
#223 = CIRCLE ( 'NONE', #72, 0.2000000000000000944 ) ;
#224 = COORDINATED_UNIVERSAL_TIME_OFFSET ( 1, 0, .AHEAD. ) ;
#225 = VERTEX_POINT ( 'NONE', #147 ) ;
#226 = LOCAL_TIME ( 10, 45, 57.00000000000000000, #28 ) ;
#227 = MECHANICAL_CONTEXT ( 'NONE', #16, 'mechanical' ) ;
#228 = CALENDAR_DATE ( 2021, 1, 11 ) ;
#229 = CIRCLE ( 'NONE', #240, 1.199999999999992184 ) ;
#230 = FACE_OUTER_BOUND ( 'NONE', #68, .T. ) ;
#231 = PERSON_AND_ORGANIZATION ( #190, #215 ) ;
#232 = CC_DESIGN_PERSON_AND_ORGANIZATION_ASSIGNMENT ( #231, #189, ( #6 ) ) ;
#233 = ORIENTED_EDGE ( 'NONE', *, *, #96, .T. ) ;
#234 = FACE_OUTER_BOUND ( 'NONE', #183, .T. ) ;
#235 = AXIS2_PLACEMENT_3D ( 'NONE', #23, #101, #38 ) ;
#236 = ADVANCED_BREP_SHAPE_REPRESENTATION ( '60123', ( #111, #187, #235 ), #158 ) ;
#237 = VERTEX_POINT ( 'NONE', #34 ) ;
#238 = DIRECTION ( 'NONE',  ( 3.491481338843133355E-15, -1.219242935835426903E-16, 1.000000000000000000 ) ) ;
#239 = CARTESIAN_POINT ( 'NONE',  ( 4.600508803299760698E-15, -1.606520933470163724E-16, 1.317638090205028201 ) ) ;
#240 = AXIS2_PLACEMENT_3D ( 'NONE', #165, #213, #120 ) ;
#241 = DATE_TIME_ROLE ( 'creation_date' ) ;
#242 = LOCAL_TIME ( 10, 45, 57.00000000000000000, #47 ) ;
#243 = ORIENTED_EDGE ( 'NONE', *, *, #164, .T. ) ;
ENDSEC;
END-ISO-10303-21;
