ISO-10303-21;
HEADER;
FILE_DESCRIPTION (( 'STEP AP203' ),
    '1' );
FILE_NAME ('60122.step',
    '2021-11-01T09:45:57',
    ( '' ),
    ( '' ),
    'SwSTEP 2.0',
    'SolidWorks 2019',
    '' );
FILE_SCHEMA (( 'CONFIG_CONTROL_DESIGN' ));
ENDSEC;

DATA;
#1 = SHAPE_DEFINITION_REPRESENTATION ( #109, #221 ) ;
#2 = AXIS2_PLACEMENT_3D ( 'NONE', #105, #47, #17 ) ;
#3 = ORIENTED_EDGE ( 'NONE', *, *, #62, .F. ) ;
#4 = DIRECTION ( 'NONE',  ( 0.0000000000000000000, 1.000000000000000000, 0.0000000000000000000 ) ) ;
#5 = ORIENTED_EDGE ( 'NONE', *, *, #108, .F. ) ;
#6 = ORIENTED_EDGE ( 'NONE', *, *, #121, .F. ) ;
#7 = DIRECTION ( 'NONE',  ( 0.0000000000000000000, 0.0000000000000000000, 1.000000000000000000 ) ) ;
#8 = FACE_OUTER_BOUND ( 'NONE', #158, .T. ) ;
#9 = CALENDAR_DATE ( 2021, 1, 11 ) ;
#10 = CONICAL_SURFACE ( 'NONE', #53, 1.199999999999992184, 0.7853981633974468357 ) ;
#11 = FACE_OUTER_BOUND ( 'NONE', #25, .T. ) ;
#12 = APPROVAL_STATUS ( 'not_yet_approved' ) ;
#13 = DIRECTION ( 'NONE',  ( 3.491481338843133355E-15, -1.219242935835426903E-16, 1.000000000000000000 ) ) ;
#14 = PERSON_AND_ORGANIZATION ( #112, #60 ) ;
#15 = DIRECTION ( 'NONE',  ( -4.320952619198382142E-31, -1.000000000000000000, -1.219242935835426903E-16 ) ) ;
#16 = CIRCLE ( 'NONE', #242, 0.1500000000000000777 ) ;
#17 = DIRECTION ( 'NONE',  ( -4.275831445896958607E-31, -1.000000000000000000, -1.224646799147353207E-16 ) ) ;
#18 = AXIS2_PLACEMENT_3D ( 'NONE', #44, #235, #26 ) ;
#19 = CONICAL_SURFACE ( 'NONE', #214, 2.499999999999992006, 0.2617993877991429130 ) ;
#20 = DATE_AND_TIME ( #71, #49 ) ;
#21 = ORIENTED_EDGE ( 'NONE', *, *, #227, .F. ) ;
#22 = EDGE_LOOP ( 'NONE', ( #212 ) ) ;
#23 = CARTESIAN_POINT ( 'NONE',  ( 1.326762908760390423E-13, 1.199999999999987521, 38.00000000000000000 ) ) ;
#24 = CARTESIAN_POINT ( 'NONE',  ( 3.491481338843130989E-15, -0.1500000000000001887, 0.9999999999999993339 ) ) ;
#25 = EDGE_LOOP ( 'NONE', ( #228 ) ) ;
#26 = DIRECTION ( 'NONE',  ( 4.275831445896958607E-31, 1.000000000000000000, 1.224646799147353454E-16 ) ) ;
#27 = VERTEX_POINT ( 'NONE', #232 ) ;
#28 = FACE_OUTER_BOUND ( 'NONE', #94, .T. ) ;
#29 = ADVANCED_FACE ( 'NONE', ( #230, #119 ), #10, .T. ) ;
#30 = PRODUCT_DEFINITION_FORMATION_WITH_SPECIFIED_SOURCE ( 'ANY', '', #115, .NOT_KNOWN. ) ;
#31 = FACE_OUTER_BOUND ( 'NONE', #118, .T. ) ;
#32 = CARTESIAN_POINT ( 'NONE',  ( 3.503221232898753895E-14, -1.223342566194475440E-15, 10.03362439296184583 ) ) ;
#33 = MANIFOLD_SOLID_BREP ( 'Corps-Déplacer/Copier1[2]', #42 ) ;
#34 = CARTESIAN_POINT ( 'NONE',  ( 1.326762908760390423E-13, 8.998558695971017012E-33, 38.00000000000000000 ) ) ;
#35 = APPROVAL_DATE_TIME ( #37, #89 ) ;
#36 = APPROVAL_PERSON_ORGANIZATION ( #133, #136, #207 ) ;
#37 = DATE_AND_TIME ( #55, #239 ) ;
#38 = CC_DESIGN_PERSON_AND_ORGANIZATION_ASSIGNMENT ( #14, #238, ( #30 ) ) ;
#39 = ORIENTED_EDGE ( 'NONE', *, *, #213, .T. ) ;
#40 = EDGE_LOOP ( 'NONE', ( #39 ) ) ;
#41 = CIRCLE ( 'NONE', #123, 0.2181483474218601781 ) ;
#42 = CLOSED_SHELL ( 'NONE', ( #95, #139, #114 ) ) ;
#43 = CARTESIAN_POINT ( 'NONE',  ( 1.316288464743861212E-13, 1.499999999999988232, 37.69999999999999574 ) ) ;
#44 = CARTESIAN_POINT ( 'NONE',  ( 0.0000000000000000000, 0.0000000000000000000, 0.0000000000000000000 ) ) ;
#45 = PLANE ( 'NONE',  #113 ) ;
#46 = APPLICATION_PROTOCOL_DEFINITION ( 'international standard', 'config_control_design', 1994, #160 ) ;
#47 = DIRECTION ( 'NONE',  ( 3.491481338843133355E-15, -1.224646799147353207E-16, 1.000000000000000000 ) ) ;
#48 = DATE_TIME_ROLE ( 'creation_date' ) ;
#49 = LOCAL_TIME ( 10, 45, 57.00000000000000000, #205 ) ;
#50 = DIRECTION ( 'NONE',  ( 0.0000000000000000000, 1.000000000000000000, 0.0000000000000000000 ) ) ;
#51 = APPROVAL ( #12, 'UNSPECIFIED' ) ;
#52 = CARTESIAN_POINT ( 'NONE',  ( -4.553488014602853632E-30, 1.590101036328421743E-31, -1.304170801070815672E-15 ) ) ;
#53 = AXIS2_PLACEMENT_3D ( 'NONE', #169, #217, #150 ) ;
#54 = PERSON_AND_ORGANIZATION ( #112, #60 ) ;
#55 = CALENDAR_DATE ( 2021, 1, 11 ) ;
#56 = ORIENTED_EDGE ( 'NONE', *, *, #157, .T. ) ;
#57 = ADVANCED_FACE ( 'NONE', ( #147, #144 ), #19, .T. ) ;
#58 = DIRECTION ( 'NONE',  ( 1.000000000000000000, 0.0000000000000000000, 0.0000000000000000000 ) ) ;
#59 = CARTESIAN_POINT ( 'NONE',  ( 2.200182657874600800E-14, -7.683149078637376091E-16, 6.301573585392866939 ) ) ;
#60 = ORGANIZATION ( 'UNSPECIFIED', 'UNSPECIFIED', '' ) ;
#61 = VERTEX_POINT ( 'NONE', #24 ) ;
#62 = EDGE_CURVE ( 'NONE', #27, #27, #16, .T. ) ;
#63 = CARTESIAN_POINT ( 'NONE',  ( 3.491481338843133355E-15, -1.445602896647343354E-16, 1.000000000000000000 ) ) ;
#64 = DIRECTION ( 'NONE',  ( 3.491481338843133355E-15, -1.224646799147353207E-16, 1.000000000000000000 ) ) ;
#65 = CALENDAR_DATE ( 2021, 1, 11 ) ;
#66 = CARTESIAN_POINT ( 'NONE',  ( 3.491481338843130989E-15, 0.0000000000000000000, 0.9999999999999993339 ) ) ;
#67 = PERSON_AND_ORGANIZATION ( #112, #60 ) ;
#68 = SECURITY_CLASSIFICATION ( '', '', #168 ) ;
#69 = DIRECTION ( 'NONE',  ( 3.491481338843133355E-15, -1.219242935835426903E-16, 1.000000000000000000 ) ) ;
#70 = CIRCLE ( 'NONE', #173, 0.1500000000000000777 ) ;
#71 = CALENDAR_DATE ( 2021, 1, 11 ) ;
#72 = AXIS2_PLACEMENT_3D ( 'NONE', #63, #87, #171 ) ;
#73 = EDGE_LOOP ( 'NONE', ( #76 ) ) ;
#74 = CC_DESIGN_DATE_AND_TIME_ASSIGNMENT ( #149, #48, ( #174 ) ) ;
#75 = PERSON_AND_ORGANIZATION_ROLE ( 'design_owner' ) ;
#76 = ORIENTED_EDGE ( 'NONE', *, *, #227, .T. ) ;
#77 =( NAMED_UNIT ( * ) PLANE_ANGLE_UNIT ( ) SI_UNIT ( $, .RADIAN. ) );
#78 = EDGE_LOOP ( 'NONE', ( #3 ) ) ;
#79 = CC_DESIGN_PERSON_AND_ORGANIZATION_ASSIGNMENT ( #54, #153, ( #30 ) ) ;
#80 = PERSON_AND_ORGANIZATION ( #112, #60 ) ;
#81 = CYLINDRICAL_SURFACE ( 'NONE', #201, 0.1500000000000000222 ) ;
#82 = AXIS2_PLACEMENT_3D ( 'NONE', #196, #102, #4 ) ;
#83 = CC_DESIGN_APPROVAL ( #89, ( #68 ) ) ;
#84 = DIRECTION ( 'NONE',  ( 3.491481338843133355E-15, -1.219242935835426903E-16, 1.000000000000000000 ) ) ;
#85 = PERSON_AND_ORGANIZATION_ROLE ( 'creator' ) ;
#86 = DIRECTION ( 'NONE',  ( 0.0000000000000000000, -1.000000000000000000, 0.0000000000000000000 ) ) ;
#87 = DIRECTION ( 'NONE',  ( 3.491481338843133355E-15, -1.224646799147353207E-16, 1.000000000000000000 ) ) ;
#88 = DIRECTION ( 'NONE',  ( -4.256963957985694876E-31, -1.000000000000000000, -1.219242935835426903E-16 ) ) ;
#89 = APPROVAL ( #140, 'UNSPECIFIED' ) ;
#90 = CC_DESIGN_APPROVAL ( #51, ( #174 ) ) ;
#91 = APPROVAL_ROLE ( '' ) ;
#92 = ADVANCED_FACE ( 'NONE', ( #126, #215 ), #222, .T. ) ;
#93 = PERSON_AND_ORGANIZATION_ROLE ( 'classification_officer' ) ;
#94 = EDGE_LOOP ( 'NONE', ( #180 ) ) ;
#95 = ADVANCED_FACE ( 'NONE', ( #28 ), #240, .T. ) ;
#96 = EDGE_LOOP ( 'NONE', ( #142 ) ) ;
#97 = DATE_AND_TIME ( #9, #106 ) ;
#98 = APPROVAL_PERSON_ORGANIZATION ( #188, #89, #91 ) ;
#99 = VERTEX_POINT ( 'NONE', #23 ) ;
#100 = EDGE_CURVE ( 'NONE', #104, #104, #204, .T. ) ;
#101 = EDGE_LOOP ( 'NONE', ( #161 ) ) ;
#102 = DIRECTION ( 'NONE',  ( -3.491481338843133355E-15, 1.224646799147353207E-16, -1.000000000000000000 ) ) ;
#103 = DIRECTION ( 'NONE',  ( 0.0000000000000000000, -1.000000000000000000, 0.0000000000000000000 ) ) ;
#104 = VERTEX_POINT ( 'NONE', #194 ) ;
#105 = CARTESIAN_POINT ( 'NONE',  ( 3.491481338843133355E-15, -1.445602896647343354E-16, 1.000000000000000000 ) ) ;
#106 = LOCAL_TIME ( 10, 45, 57.00000000000000000, #128 ) ;
#107 = DIRECTION ( 'NONE',  ( 4.275831445896958607E-31, 1.000000000000000000, 1.224646799147353207E-16 ) ) ;
#108 = EDGE_CURVE ( 'NONE', #146, #146, #41, .T. ) ;
#109 = PRODUCT_DEFINITION_SHAPE ( 'NONE', 'NONE',  #174 ) ;
#110 = CARTESIAN_POINT ( 'NONE',  ( 1.326762908760390423E-13, -4.653657836759941941E-15, 38.00000000000000000 ) ) ;
#111 = FACE_OUTER_BOUND ( 'NONE', #122, .T. ) ;
#112 = PERSON ( 'UNSPECIFIED', 'UNSPECIFIED', 'UNSPECIFIED', ('UNSPECIFIED'), ('UNSPECIFIED'), ('UNSPECIFIED') ) ;
#113 = AXIS2_PLACEMENT_3D ( 'NONE', #34, #131, #107 ) ;
#114 = ADVANCED_FACE ( 'NONE', ( #11 ), #183, .F. ) ;
#115 = PRODUCT ( '60122', '60122', '', ( #182 ) ) ;
#116 = AXIS2_PLACEMENT_3D ( 'NONE', #59, #237, #189 ) ;
#117 = EDGE_LOOP ( 'NONE', ( #56 ) ) ;
#118 = EDGE_LOOP ( 'NONE', ( #192 ) ) ;
#119 = FACE_BOUND ( 'NONE', #117, .T. ) ;
#120 = APPLICATION_PROTOCOL_DEFINITION ( 'international standard', 'config_control_design', 1994, #152 ) ;
#121 = EDGE_CURVE ( 'NONE', #61, #61, #70, .T. ) ;
#122 = EDGE_LOOP ( 'NONE', ( #177 ) ) ;
#123 = AXIS2_PLACEMENT_3D ( 'NONE', #198, #220, #151 ) ;
#124 = CC_DESIGN_SECURITY_CLASSIFICATION ( #68, ( #30 ) ) ;
#125 =( LENGTH_UNIT ( ) NAMED_UNIT ( * ) SI_UNIT ( .MILLI., .METRE. ) );
#126 = FACE_OUTER_BOUND ( 'NONE', #73, .T. ) ;
#127 = UNCERTAINTY_MEASURE_WITH_UNIT (LENGTH_MEASURE( 1.000000000000000082E-05 ), #125, 'distance_accuracy_value', 'NONE');
#128 = COORDINATED_UNIVERSAL_TIME_OFFSET ( 1, 0, .AHEAD. ) ;
#129 = DIRECTION ( 'NONE',  ( 0.0000000000000000000, -1.000000000000000000, 0.0000000000000000000 ) ) ;
#130 = CARTESIAN_POINT ( 'NONE',  ( 5.298805071068388947E-15, -0.2181483474218603724, 1.517638090205028378 ) ) ;
#131 = DIRECTION ( 'NONE',  ( -3.491481338843133355E-15, 1.224646799147353207E-16, -1.000000000000000000 ) ) ;
#132 = LOCAL_TIME ( 10, 45, 57.00000000000000000, #236 ) ;
#133 = PERSON_AND_ORGANIZATION ( #112, #60 ) ;
#134 = DIRECTION ( 'NONE',  ( 3.491481338843133355E-15, -1.219242935835426903E-16, 1.000000000000000000 ) ) ;
#135 = FACE_OUTER_BOUND ( 'NONE', #78, .T. ) ;
#136 = APPROVAL ( #178, 'UNSPECIFIED' ) ;
#137 = CIRCLE ( 'NONE', #82, 1.499999999999992895 ) ;
#138 = PRODUCT_RELATED_PRODUCT_CATEGORY ( 'detail', '', ( #115 ) ) ;
#139 = ADVANCED_FACE ( 'NONE', ( #31, #8 ), #81, .T. ) ;
#140 = APPROVAL_STATUS ( 'not_yet_approved' ) ;
#141 = EDGE_LOOP ( 'NONE', ( #21 ) ) ;
#142 = ORIENTED_EDGE ( 'NONE', *, *, #157, .F. ) ;
#143 = AXIS2_PLACEMENT_3D ( 'NONE', #66, #134, #15 ) ;
#144 = FACE_OUTER_BOUND ( 'NONE', #40, .T. ) ;
#145 = AXIS2_PLACEMENT_3D ( 'NONE', #110, #148, #50 ) ;
#146 = VERTEX_POINT ( 'NONE', #130 ) ;
#147 = FACE_BOUND ( 'NONE', #101, .T. ) ;
#148 = DIRECTION ( 'NONE',  ( -3.491481338843133355E-15, 1.224646799147353207E-16, -1.000000000000000000 ) ) ;
#149 = DATE_AND_TIME ( #65, #132 ) ;
#150 = DIRECTION ( 'NONE',  ( 0.0000000000000000000, 1.000000000000000000, 0.0000000000000000000 ) ) ;
#151 = DIRECTION ( 'NONE',  ( 0.0000000000000000000, -1.000000000000000000, 0.0000000000000000000 ) ) ;
#152 = APPLICATION_CONTEXT ( 'configuration controlled 3d designs of mechanical parts and assemblies' ) ;
#153 = PERSON_AND_ORGANIZATION_ROLE ( 'design_supplier' ) ;
#154 = APPROVAL_DATE_TIME ( #20, #136 ) ;
#155 = CIRCLE ( 'NONE', #145, 1.199999999999992184 ) ;
#156 = AXIS2_PLACEMENT_3D ( 'NONE', #159, #7, #58 ) ;
#157 = EDGE_CURVE ( 'NONE', #99, #99, #155, .T. ) ;
#158 = EDGE_LOOP ( 'NONE', ( #6 ) ) ;
#159 = CARTESIAN_POINT ( 'NONE',  ( 0.0000000000000000000, 0.0000000000000000000, 0.0000000000000000000 ) ) ;
#160 = APPLICATION_CONTEXT ( 'configuration controlled 3d designs of mechanical parts and assemblies' ) ;
#161 = ORIENTED_EDGE ( 'NONE', *, *, #108, .T. ) ;
#162 = APPROVAL_ROLE ( '' ) ;
#163 = CARTESIAN_POINT ( 'NONE',  ( 0.0000000000000000000, 0.0000000000000000000, 0.0000000000000000000 ) ) ;
#164 = APPROVAL_DATE_TIME ( #97, #51 ) ;
#165 = ADVANCED_FACE ( 'NONE', ( #135 ), #219, .F. ) ;
#166 = DIRECTION ( 'NONE',  ( -4.256963957985708889E-31, -1.000000000000000000, -1.219242935835426656E-16 ) ) ;
#167 = FACE_OUTER_BOUND ( 'NONE', #210, .T. ) ;
#168 = SECURITY_CLASSIFICATION_LEVEL ( 'unclassified' ) ;
#169 = CARTESIAN_POINT ( 'NONE',  ( 1.326762908760390423E-13, -4.653657836759941941E-15, 38.00000000000000000 ) ) ;
#170 = ADVANCED_FACE ( 'NONE', ( #203 ), #45, .F. ) ;
#171 = DIRECTION ( 'NONE',  ( -4.275831445896958607E-31, -1.000000000000000000, -1.224646799147353207E-16 ) ) ;
#172 = COORDINATED_UNIVERSAL_TIME_OFFSET ( 1, 0, .AHEAD. ) ;
#173 = AXIS2_PLACEMENT_3D ( 'NONE', #200, #13, #86 ) ;
#174 = PRODUCT_DEFINITION ( 'UNKNOWN', '', #30, #243 ) ;
#175 = CC_DESIGN_PERSON_AND_ORGANIZATION_ASSIGNMENT ( #234, #85, ( #174 ) ) ;
#176 = CIRCLE ( 'NONE', #116, 1.499999999999990674 ) ;
#177 = ORIENTED_EDGE ( 'NONE', *, *, #62, .T. ) ;
#178 = APPROVAL_STATUS ( 'not_yet_approved' ) ;
#179 = CC_DESIGN_PERSON_AND_ORGANIZATION_ASSIGNMENT ( #80, #75, ( #115 ) ) ;
#180 = ORIENTED_EDGE ( 'NONE', *, *, #121, .T. ) ;
#181 = VERTEX_POINT ( 'NONE', #43 ) ;
#182 = MECHANICAL_CONTEXT ( 'NONE', #160, 'mechanical' ) ;
#183 = PLANE ( 'NONE',  #229 ) ;
#184 = CC_DESIGN_DATE_AND_TIME_ASSIGNMENT ( #206, #225, ( #68 ) ) ;
#185 = CARTESIAN_POINT ( 'NONE',  ( -1.924129419174264339E-30, 6.748937501461144163E-32, -5.510925685805913103E-16 ) ) ;
#186 = PERSON_AND_ORGANIZATION ( #112, #60 ) ;
#187 = DIRECTION ( 'NONE',  ( 3.491481338843133355E-15, -1.219242935835426903E-16, 1.000000000000000000 ) ) ;
#188 = PERSON_AND_ORGANIZATION ( #112, #60 ) ;
#189 = DIRECTION ( 'NONE',  ( 0.0000000000000000000, -1.000000000000000000, 0.0000000000000000000 ) ) ;
#190 = CC_DESIGN_APPROVAL ( #136, ( #30 ) ) ;
#191 = AXIS2_PLACEMENT_3D ( 'NONE', #52, #187, #88 ) ;
#192 = ORIENTED_EDGE ( 'NONE', *, *, #100, .T. ) ;
#193 = MANIFOLD_SOLID_BREP ( 'Corps-Déplacer/Copier1[1]', #226 ) ;
#194 = CARTESIAN_POINT ( 'NONE',  ( -4.617342473972639261E-30, -0.1499999999999999667, -1.322459445108347184E-15 ) ) ;
#195 =( GEOMETRIC_REPRESENTATION_CONTEXT ( 3 ) GLOBAL_UNCERTAINTY_ASSIGNED_CONTEXT ( ( #127 ) ) GLOBAL_UNIT_ASSIGNED_CONTEXT ( ( #125, #77, #218 ) ) REPRESENTATION_CONTEXT ( 'NONE', 'WORKASPACE' ) );
#196 = CARTESIAN_POINT ( 'NONE',  ( 1.316288464743861212E-13, -4.616918432785521081E-15, 37.69999999999999574 ) ) ;
#197 = ADVANCED_FACE ( 'NONE', ( #111, #167 ), #211, .F. ) ;
#198 = CARTESIAN_POINT ( 'NONE',  ( 5.298805071068388947E-15, -1.850369520637249153E-16, 1.517638090205028378 ) ) ;
#199 = CARTESIAN_POINT ( 'NONE',  ( 3.491481338843130989E-15, -1.219242935835426163E-16, 0.9999999999999993339 ) ) ;
#200 = CARTESIAN_POINT ( 'NONE',  ( 3.491481338843130989E-15, -1.219242935835426163E-16, 0.9999999999999993339 ) ) ;
#201 = AXIS2_PLACEMENT_3D ( 'NONE', #163, #84, #166 ) ;
#202 = DIRECTION ( 'NONE',  ( -4.275831445896958607E-31, -1.000000000000000000, -1.224646799147353207E-16 ) ) ;
#203 = FACE_OUTER_BOUND ( 'NONE', #96, .T. ) ;
#204 = CIRCLE ( 'NONE', #191, 0.1499999999999999667 ) ;
#205 = COORDINATED_UNIVERSAL_TIME_OFFSET ( 1, 0, .AHEAD. ) ;
#206 = DATE_AND_TIME ( #209, #208 ) ;
#207 = APPROVAL_ROLE ( '' ) ;
#208 = LOCAL_TIME ( 10, 45, 57.00000000000000000, #241 ) ;
#209 = CALENDAR_DATE ( 2021, 1, 11 ) ;
#210 = EDGE_LOOP ( 'NONE', ( #5 ) ) ;
#211 = TOROIDAL_SURFACE ( 'NONE', #143, 2.149999999999999911, 2.000000000000000000 ) ;
#212 = ORIENTED_EDGE ( 'NONE', *, *, #213, .F. ) ;
#213 = EDGE_CURVE ( 'NONE', #216, #216, #176, .T. ) ;
#214 = AXIS2_PLACEMENT_3D ( 'NONE', #32, #69, #129 ) ;
#215 = FACE_OUTER_BOUND ( 'NONE', #22, .T. ) ;
#216 = VERTEX_POINT ( 'NONE', #231 ) ;
#217 = DIRECTION ( 'NONE',  ( -3.491481338843133355E-15, 1.224646799147353207E-16, -1.000000000000000000 ) ) ;
#218 =( NAMED_UNIT ( * ) SI_UNIT ( $, .STERADIAN. ) SOLID_ANGLE_UNIT ( ) );
#219 = PLANE ( 'NONE',  #72 ) ;
#220 = DIRECTION ( 'NONE',  ( 3.491481338843133355E-15, -1.219242935835426903E-16, 1.000000000000000000 ) ) ;
#221 = ADVANCED_BREP_SHAPE_REPRESENTATION ( '60122', ( #193, #33, #156 ), #195 ) ;
#222 = CYLINDRICAL_SURFACE ( 'NONE', #18, 1.499999999999990674 ) ;
#223 = CC_DESIGN_PERSON_AND_ORGANIZATION_ASSIGNMENT ( #67, #93, ( #68 ) ) ;
#224 = APPROVAL_PERSON_ORGANIZATION ( #186, #51, #162 ) ;
#225 = DATE_TIME_ROLE ( 'classification_date' ) ;
#226 = CLOSED_SHELL ( 'NONE', ( #92, #29, #170, #57, #197, #165 ) ) ;
#227 = EDGE_CURVE ( 'NONE', #181, #181, #137, .T. ) ;
#228 = ORIENTED_EDGE ( 'NONE', *, *, #100, .F. ) ;
#229 = AXIS2_PLACEMENT_3D ( 'NONE', #185, #64, #202 ) ;
#230 = FACE_OUTER_BOUND ( 'NONE', #141, .T. ) ;
#231 = CARTESIAN_POINT ( 'NONE',  ( 2.200182657874600800E-14, -1.499999999999991562, 6.301573585392866939 ) ) ;
#232 = CARTESIAN_POINT ( 'NONE',  ( 3.491481338843130989E-15, -0.1500000000000001887, 0.9999999999999993339 ) ) ;
#233 = DIRECTION ( 'NONE',  ( 3.491481338843133355E-15, -1.219242935835426903E-16, 1.000000000000000000 ) ) ;
#234 = PERSON_AND_ORGANIZATION ( #112, #60 ) ;
#235 = DIRECTION ( 'NONE',  ( -3.491481338843133355E-15, 1.224646799147353207E-16, -1.000000000000000000 ) ) ;
#236 = COORDINATED_UNIVERSAL_TIME_OFFSET ( 1, 0, .AHEAD. ) ;
#237 = DIRECTION ( 'NONE',  ( -3.491481338843133355E-15, 1.219242935835426903E-16, -1.000000000000000000 ) ) ;
#238 = PERSON_AND_ORGANIZATION_ROLE ( 'creator' ) ;
#239 = LOCAL_TIME ( 10, 45, 57.00000000000000000, #172 ) ;
#240 = PLANE ( 'NONE',  #2 ) ;
#241 = COORDINATED_UNIVERSAL_TIME_OFFSET ( 1, 0, .AHEAD. ) ;
#242 = AXIS2_PLACEMENT_3D ( 'NONE', #199, #233, #103 ) ;
#243 = DESIGN_CONTEXT ( 'detailed design', #152, 'design' ) ;
ENDSEC;
END-ISO-10303-21;
