ISO-10303-21;
HEADER;
FILE_DESCRIPTION (( 'STEP AP203' ),
    '1' );
FILE_NAME ('60121.step',
    '2021-11-01T09:45:56',
    ( '' ),
    ( '' ),
    'SwSTEP 2.0',
    'SolidWorks 2019',
    '' );
FILE_SCHEMA (( 'CONFIG_CONTROL_DESIGN' ));
ENDSEC;

DATA;
#1 = CC_DESIGN_PERSON_AND_ORGANIZATION_ASSIGNMENT ( #58, #242, ( #110 ) ) ;
#2 = DATE_TIME_ROLE ( 'creation_date' ) ;
#3 = ORIENTED_EDGE ( 'NONE', *, *, #52, .F. ) ;
#4 =( GEOMETRIC_REPRESENTATION_CONTEXT ( 3 ) GLOBAL_UNCERTAINTY_ASSIGNED_CONTEXT ( ( #120 ) ) GLOBAL_UNIT_ASSIGNED_CONTEXT ( ( #23, #220, #205 ) ) REPRESENTATION_CONTEXT ( 'NONE', 'WORKASPACE' ) );
#5 = ORIENTED_EDGE ( 'NONE', *, *, #204, .T. ) ;
#6 = ADVANCED_FACE ( 'NONE', ( #210, #30 ), #91, .F. ) ;
#7 = APPROVAL_ROLE ( '' ) ;
#8 = EDGE_LOOP ( 'NONE', ( #227 ) ) ;
#9 = AXIS2_PLACEMENT_3D ( 'NONE', #209, #140, #48 ) ;
#10 = CARTESIAN_POINT ( 'NONE',  ( -4.553488014602853632E-30, 1.590101036328421743E-31, -1.304170801070815672E-15 ) ) ;
#11 = COORDINATED_UNIVERSAL_TIME_OFFSET ( 1, 0, .AHEAD. ) ;
#12 = FACE_OUTER_BOUND ( 'NONE', #44, .T. ) ;
#13 = DATE_TIME_ROLE ( 'classification_date' ) ;
#14 = PLANE ( 'NONE',  #211 ) ;
#15 = DIRECTION ( 'NONE',  ( 3.491481338843133355E-15, -1.224646799147353207E-16, 1.000000000000000000 ) ) ;
#16 = CIRCLE ( 'NONE', #130, 0.1500000000000000500 ) ;
#17 = DIRECTION ( 'NONE',  ( -4.275831445896958607E-31, -1.000000000000000000, -1.224646799147353207E-16 ) ) ;
#18 = CARTESIAN_POINT ( 'NONE',  ( 2.094888803305877252E-15, -7.315457615012551802E-17, 0.5999999999999992006 ) ) ;
#19 = AXIS2_PLACEMENT_3D ( 'NONE', #98, #232, #238 ) ;
#20 = LOCAL_TIME ( 10, 45, 56.00000000000000000, #11 ) ;
#21 = COORDINATED_UNIVERSAL_TIME_OFFSET ( 1, 0, .AHEAD. ) ;
#22 = AXIS2_PLACEMENT_3D ( 'NONE', #36, #127, #129 ) ;
#23 =( LENGTH_UNIT ( ) NAMED_UNIT ( * ) SI_UNIT ( .MILLI., .METRE. ) );
#24 = ADVANCED_FACE ( 'NONE', ( #215, #160 ), #165, .T. ) ;
#25 = PERSON_AND_ORGANIZATION ( #194, #50 ) ;
#26 = ORIENTED_EDGE ( 'NONE', *, *, #221, .F. ) ;
#27 = APPROVAL_ROLE ( '' ) ;
#28 = EDGE_LOOP ( 'NONE', ( #171 ) ) ;
#29 = LOCAL_TIME ( 10, 45, 56.00000000000000000, #202 ) ;
#30 = FACE_OUTER_BOUND ( 'NONE', #187, .T. ) ;
#31 = LOCAL_TIME ( 10, 45, 56.00000000000000000, #90 ) ;
#32 = FACE_OUTER_BOUND ( 'NONE', #28, .T. ) ;
#33 = PERSON_AND_ORGANIZATION ( #194, #50 ) ;
#34 = DIRECTION ( 'NONE',  ( 0.0000000000000000000, 1.000000000000000000, 0.0000000000000000000 ) ) ;
#35 = CARTESIAN_POINT ( 'NONE',  ( 2.094888803305877252E-15, 0.0000000000000000000, 0.5999999999999992006 ) ) ;
#36 = CARTESIAN_POINT ( 'NONE',  ( 0.0000000000000000000, 0.0000000000000000000, 0.0000000000000000000 ) ) ;
#37 = CONICAL_SURFACE ( 'NONE', #229, 2.499999999999992006, 0.2617993877991429130 ) ;
#38 = EDGE_CURVE ( 'NONE', #203, #203, #191, .T. ) ;
#39 = VERTEX_POINT ( 'NONE', #105 ) ;
#40 = CARTESIAN_POINT ( 'NONE',  ( 2.094888803305877252E-15, -0.1500000000000001332, 0.5999999999999992006 ) ) ;
#41 = CIRCLE ( 'NONE', #142, 1.199999999999992184 ) ;
#42 = EDGE_LOOP ( 'NONE', ( #192 ) ) ;
#43 = PERSON_AND_ORGANIZATION ( #194, #50 ) ;
#44 = EDGE_LOOP ( 'NONE', ( #26 ) ) ;
#45 = CC_DESIGN_APPROVAL ( #170, ( #126 ) ) ;
#46 = ORIENTED_EDGE ( 'NONE', *, *, #204, .F. ) ;
#47 = DATE_AND_TIME ( #136, #29 ) ;
#48 = DIRECTION ( 'NONE',  ( -4.256963957985708889E-31, -1.000000000000000000, -1.219242935835426656E-16 ) ) ;
#49 = EDGE_CURVE ( 'NONE', #93, #93, #69, .T. ) ;
#50 = ORGANIZATION ( 'UNSPECIFIED', 'UNSPECIFIED', '' ) ;
#51 = DIRECTION ( 'NONE',  ( -4.336949784501550237E-31, -1.000000000000000000, -1.219242935835426903E-16 ) ) ;
#52 = EDGE_CURVE ( 'NONE', #73, #73, #240, .T. ) ;
#53 = CARTESIAN_POINT ( 'NONE',  ( 1.326762908760390423E-13, -4.653657836759941941E-15, 38.00000000000000000 ) ) ;
#54 = DIRECTION ( 'NONE',  ( -3.491481338843133355E-15, 1.219242935835426903E-16, -1.000000000000000000 ) ) ;
#55 = CARTESIAN_POINT ( 'NONE',  ( 2.060523404320875150E-14, -7.195451904303201780E-16, 5.901573585392864807 ) ) ;
#56 = AXIS2_PLACEMENT_3D ( 'NONE', #200, #177, #34 ) ;
#57 = CC_DESIGN_PERSON_AND_ORGANIZATION_ASSIGNMENT ( #156, #118, ( #126 ) ) ;
#58 = PERSON_AND_ORGANIZATION ( #194, #50 ) ;
#59 = EDGE_LOOP ( 'NONE', ( #46 ) ) ;
#60 = PERSON_AND_ORGANIZATION ( #194, #50 ) ;
#61 = ORIENTED_EDGE ( 'NONE', *, *, #133, .F. ) ;
#62 = APPROVAL_DATE_TIME ( #172, #197 ) ;
#63 = DIRECTION ( 'NONE',  ( 0.0000000000000000000, 1.000000000000000000, 0.0000000000000000000 ) ) ;
#64 = DIRECTION ( 'NONE',  ( -4.256963957985694876E-31, -1.000000000000000000, -1.219242935835426903E-16 ) ) ;
#65 = FACE_OUTER_BOUND ( 'NONE', #154, .T. ) ;
#66 = FACE_OUTER_BOUND ( 'NONE', #42, .T. ) ;
#67 = DIRECTION ( 'NONE',  ( -4.275831445896958607E-31, -1.000000000000000000, -1.224646799147353207E-16 ) ) ;
#68 = MECHANICAL_CONTEXT ( 'NONE', #108, 'mechanical' ) ;
#69 = CIRCLE ( 'NONE', #216, 0.2181483474218601226 ) ;
#70 = CC_DESIGN_PERSON_AND_ORGANIZATION_ASSIGNMENT ( #33, #115, ( #126 ) ) ;
#71 = SECURITY_CLASSIFICATION ( '', '', #231 ) ;
#72 = CALENDAR_DATE ( 2021, 1, 11 ) ;
#73 = VERTEX_POINT ( 'NONE', #150 ) ;
#74 = VERTEX_POINT ( 'NONE', #166 ) ;
#75 = AXIS2_PLACEMENT_3D ( 'NONE', #233, #15, #67 ) ;
#76 = CARTESIAN_POINT ( 'NONE',  ( 3.902212535531134027E-15, -0.2181483474218602614, 1.117638090205028245 ) ) ;
#77 = ORIENTED_EDGE ( 'NONE', *, *, #52, .T. ) ;
#78 = APPROVAL_STATUS ( 'not_yet_approved' ) ;
#79 = ORIENTED_EDGE ( 'NONE', *, *, #221, .T. ) ;
#80 = DIRECTION ( 'NONE',  ( 0.0000000000000000000, -1.000000000000000000, 0.0000000000000000000 ) ) ;
#81 = CARTESIAN_POINT ( 'NONE',  ( -1.924129419174264339E-30, 6.748937501461144163E-32, -5.510925685805913103E-16 ) ) ;
#82 = CC_DESIGN_PERSON_AND_ORGANIZATION_ASSIGNMENT ( #168, #132, ( #135 ) ) ;
#83 = DIRECTION ( 'NONE',  ( -3.491481338843133355E-15, 1.224646799147353207E-16, -1.000000000000000000 ) ) ;
#84 = CIRCLE ( 'NONE', #109, 0.1499999999999999667 ) ;
#85 = DIRECTION ( 'NONE',  ( 3.491481338843133355E-15, -1.219242935835426903E-16, 1.000000000000000000 ) ) ;
#86 = DIRECTION ( 'NONE',  ( -4.275831445896958607E-31, -1.000000000000000000, -1.224646799147353207E-16 ) ) ;
#87 = EDGE_CURVE ( 'NONE', #222, #222, #41, .T. ) ;
#88 = APPROVAL_ROLE ( '' ) ;
#89 = APPROVAL_PERSON_ORGANIZATION ( #43, #170, #27 ) ;
#90 = COORDINATED_UNIVERSAL_TIME_OFFSET ( 1, 0, .AHEAD. ) ;
#91 = TOROIDAL_SURFACE ( 'NONE', #223, 2.149999999999999911, 2.000000000000000000 ) ;
#92 = DATE_AND_TIME ( #147, #97 ) ;
#93 = VERTEX_POINT ( 'NONE', #76 ) ;
#94 = PERSON_AND_ORGANIZATION_ROLE ( 'classification_officer' ) ;
#95 = EDGE_LOOP ( 'NONE', ( #5 ) ) ;
#96 = DIRECTION ( 'NONE',  ( 0.0000000000000000000, 1.000000000000000000, 0.0000000000000000000 ) ) ;
#97 = LOCAL_TIME ( 10, 45, 56.00000000000000000, #21 ) ;
#98 = CARTESIAN_POINT ( 'NONE',  ( 0.0000000000000000000, 0.0000000000000000000, 0.0000000000000000000 ) ) ;
#99 = CALENDAR_DATE ( 2021, 1, 11 ) ;
#100 = PLANE ( 'NONE',  #75 ) ;
#101 = MANIFOLD_SOLID_BREP ( 'Corps-Déplacer/Copier1[1]', #228 ) ;
#102 = DIRECTION ( 'NONE',  ( 3.491481338843133355E-15, -1.219242935835426903E-16, 1.000000000000000000 ) ) ;
#103 = LOCAL_TIME ( 10, 45, 56.00000000000000000, #138 ) ;
#104 = DIRECTION ( 'NONE',  ( 3.491481338843133355E-15, -1.224646799147353207E-16, 1.000000000000000000 ) ) ;
#105 = CARTESIAN_POINT ( 'NONE',  ( -4.617342473972639261E-30, -0.1499999999999999667, -1.322459445108347184E-15 ) ) ;
#106 = ADVANCED_FACE ( 'NONE', ( #121, #175 ), #37, .T. ) ;
#107 = APPROVAL ( #243, 'UNSPECIFIED' ) ;
#108 = APPLICATION_CONTEXT ( 'configuration controlled 3d designs of mechanical parts and assemblies' ) ;
#109 = AXIS2_PLACEMENT_3D ( 'NONE', #10, #85, #64 ) ;
#110 = PRODUCT_DEFINITION ( 'UNKNOWN', '', #126, #167 ) ;
#111 = ORIENTED_EDGE ( 'NONE', *, *, #133, .T. ) ;
#112 = DIRECTION ( 'NONE',  ( 3.491481338843133355E-15, -1.219242935835426903E-16, 1.000000000000000000 ) ) ;
#113 = CC_DESIGN_DATE_AND_TIME_ASSIGNMENT ( #169, #2, ( #110 ) ) ;
#114 = AXIS2_PLACEMENT_3D ( 'NONE', #214, #104, #86 ) ;
#115 = PERSON_AND_ORGANIZATION_ROLE ( 'design_supplier' ) ;
#116 = FACE_OUTER_BOUND ( 'NONE', #59, .T. ) ;
#117 = CIRCLE ( 'NONE', #123, 0.1500000000000000500 ) ;
#118 = PERSON_AND_ORGANIZATION_ROLE ( 'creator' ) ;
#119 = FACE_OUTER_BOUND ( 'NONE', #208, .T. ) ;
#120 = UNCERTAINTY_MEASURE_WITH_UNIT (LENGTH_MEASURE( 1.000000000000000082E-05 ), #23, 'distance_accuracy_value', 'NONE');
#121 = FACE_BOUND ( 'NONE', #8, .T. ) ;
#122 = PLANE ( 'NONE',  #218 ) ;
#123 = AXIS2_PLACEMENT_3D ( 'NONE', #239, #112, #184 ) ;
#124 = DIRECTION ( 'NONE',  ( -3.491481338843133355E-15, 1.224646799147353207E-16, -1.000000000000000000 ) ) ;
#125 = ADVANCED_FACE ( 'NONE', ( #116 ), #100, .F. ) ;
#126 = PRODUCT_DEFINITION_FORMATION_WITH_SPECIFIED_SOURCE ( 'ANY', '', #135, .NOT_KNOWN. ) ;
#127 = DIRECTION ( 'NONE',  ( 0.0000000000000000000, 0.0000000000000000000, 1.000000000000000000 ) ) ;
#128 = DIRECTION ( 'NONE',  ( 3.491481338843133355E-15, -1.219242935835426903E-16, 1.000000000000000000 ) ) ;
#129 = DIRECTION ( 'NONE',  ( 1.000000000000000000, 0.0000000000000000000, 0.0000000000000000000 ) ) ;
#130 = AXIS2_PLACEMENT_3D ( 'NONE', #18, #128, #149 ) ;
#131 = ORIENTED_EDGE ( 'NONE', *, *, #38, .T. ) ;
#132 = PERSON_AND_ORGANIZATION_ROLE ( 'design_owner' ) ;
#133 = EDGE_CURVE ( 'NONE', #39, #39, #84, .T. ) ;
#134 = ADVANCED_BREP_SHAPE_REPRESENTATION ( '60121', ( #101, #182, #22 ), #4 ) ;
#135 = PRODUCT ( '60121', '60121', '', ( #68 ) ) ;
#136 = CALENDAR_DATE ( 2021, 1, 11 ) ;
#137 = APPLICATION_CONTEXT ( 'configuration controlled 3d designs of mechanical parts and assemblies' ) ;
#138 = COORDINATED_UNIVERSAL_TIME_OFFSET ( 1, 0, .AHEAD. ) ;
#139 = CYLINDRICAL_SURFACE ( 'NONE', #9, 0.1500000000000000222 ) ;
#140 = DIRECTION ( 'NONE',  ( 3.491481338843133355E-15, -1.219242935835426903E-16, 1.000000000000000000 ) ) ;
#141 = PRODUCT_DEFINITION_SHAPE ( 'NONE', 'NONE',  #110 ) ;
#142 = AXIS2_PLACEMENT_3D ( 'NONE', #178, #124, #96 ) ;
#143 = CARTESIAN_POINT ( 'NONE',  ( 3.902212535531134027E-15, -1.362672346303078047E-16, 1.117638090205028245 ) ) ;
#144 = DIRECTION ( 'NONE',  ( 4.275831445896958607E-31, 1.000000000000000000, 1.224646799147353207E-16 ) ) ;
#145 = DIRECTION ( 'NONE',  ( 3.491481338843133355E-15, -1.219242935835426903E-16, 1.000000000000000000 ) ) ;
#146 = CC_DESIGN_APPROVAL ( #107, ( #110 ) ) ;
#147 = CALENDAR_DATE ( 2021, 1, 11 ) ;
#148 = ADVANCED_FACE ( 'NONE', ( #32, #179 ), #206, .T. ) ;
#149 = DIRECTION ( 'NONE',  ( 0.0000000000000000000, -1.000000000000000000, 0.0000000000000000000 ) ) ;
#150 = CARTESIAN_POINT ( 'NONE',  ( 2.060523404320875150E-14, -1.499999999999991118, 5.901573585392864807 ) ) ;
#151 = AXIS2_PLACEMENT_3D ( 'NONE', #53, #235, #63 ) ;
#152 = ADVANCED_FACE ( 'NONE', ( #198, #12 ), #139, .T. ) ;
#153 = VERTEX_POINT ( 'NONE', #40 ) ;
#154 = EDGE_LOOP ( 'NONE', ( #79 ) ) ;
#155 = EDGE_LOOP ( 'NONE', ( #77 ) ) ;
#156 = PERSON_AND_ORGANIZATION ( #194, #50 ) ;
#157 = ADVANCED_FACE ( 'NONE', ( #119 ), #122, .F. ) ;
#158 = ORIENTED_EDGE ( 'NONE', *, *, #49, .F. ) ;
#159 = AXIS2_PLACEMENT_3D ( 'NONE', #55, #54, #199 ) ;
#160 = FACE_OUTER_BOUND ( 'NONE', #189, .T. ) ;
#161 = DIRECTION ( 'NONE',  ( 3.491481338843133355E-15, -1.224646799147353207E-16, 1.000000000000000000 ) ) ;
#162 = DATE_AND_TIME ( #193, #103 ) ;
#163 = DIRECTION ( 'NONE',  ( 0.0000000000000000000, -1.000000000000000000, 0.0000000000000000000 ) ) ;
#164 = CARTESIAN_POINT ( 'NONE',  ( 1.326762908760390423E-13, 8.998558695971017012E-33, 38.00000000000000000 ) ) ;
#165 = CYLINDRICAL_SURFACE ( 'NONE', #19, 1.499999999999990452 ) ;
#166 = CARTESIAN_POINT ( 'NONE',  ( 2.094888803305877252E-15, -0.1500000000000001332, 0.5999999999999992006 ) ) ;
#167 = DESIGN_CONTEXT ( 'detailed design', #137, 'design' ) ;
#168 = PERSON_AND_ORGANIZATION ( #194, #50 ) ;
#169 = DATE_AND_TIME ( #72, #31 ) ;
#170 = APPROVAL ( #188, 'UNSPECIFIED' ) ;
#171 = ORIENTED_EDGE ( 'NONE', *, *, #38, .F. ) ;
#172 = DATE_AND_TIME ( #99, #20 ) ;
#173 = PERSON_AND_ORGANIZATION ( #194, #50 ) ;
#174 = ADVANCED_FACE ( 'NONE', ( #66 ), #14, .F. ) ;
#175 = FACE_OUTER_BOUND ( 'NONE', #155, .T. ) ;
#176 = CARTESIAN_POINT ( 'NONE',  ( 3.363561979345029192E-14, -1.174572848761058009E-15, 9.633624392961843697 ) ) ;
#177 = DIRECTION ( 'NONE',  ( -3.491481338843133355E-15, 1.224646799147353207E-16, -1.000000000000000000 ) ) ;
#178 = CARTESIAN_POINT ( 'NONE',  ( 1.326762908760390423E-13, -4.653657836759941941E-15, 38.00000000000000000 ) ) ;
#179 = FACE_BOUND ( 'NONE', #224, .T. ) ;
#180 = CARTESIAN_POINT ( 'NONE',  ( 1.316288464743861212E-13, 1.499999999999988232, 37.69999999999999574 ) ) ;
#181 = CC_DESIGN_DATE_AND_TIME_ASSIGNMENT ( #162, #13, ( #71 ) ) ;
#182 = MANIFOLD_SOLID_BREP ( 'Corps-Déplacer/Copier1[2]', #185 ) ;
#183 = APPLICATION_PROTOCOL_DEFINITION ( 'international standard', 'config_control_design', 1994, #137 ) ;
#184 = DIRECTION ( 'NONE',  ( 0.0000000000000000000, -1.000000000000000000, 0.0000000000000000000 ) ) ;
#185 = CLOSED_SHELL ( 'NONE', ( #196, #152, #157 ) ) ;
#186 = CARTESIAN_POINT ( 'NONE',  ( 1.326762908760390423E-13, 1.199999999999987521, 38.00000000000000000 ) ) ;
#187 = EDGE_LOOP ( 'NONE', ( #158 ) ) ;
#188 = APPROVAL_STATUS ( 'not_yet_approved' ) ;
#189 = EDGE_LOOP ( 'NONE', ( #3 ) ) ;
#190 = SHAPE_DEFINITION_REPRESENTATION ( #141, #134 ) ;
#191 = CIRCLE ( 'NONE', #56, 1.499999999999992895 ) ;
#192 = ORIENTED_EDGE ( 'NONE', *, *, #87, .F. ) ;
#193 = CALENDAR_DATE ( 2021, 1, 11 ) ;
#194 = PERSON ( 'UNSPECIFIED', 'UNSPECIFIED', 'UNSPECIFIED', ('UNSPECIFIED'), ('UNSPECIFIED'), ('UNSPECIFIED') ) ;
#195 = ORIENTED_EDGE ( 'NONE', *, *, #87, .T. ) ;
#196 = ADVANCED_FACE ( 'NONE', ( #65 ), #237, .T. ) ;
#197 = APPROVAL ( #78, 'UNSPECIFIED' ) ;
#198 = FACE_OUTER_BOUND ( 'NONE', #225, .T. ) ;
#199 = DIRECTION ( 'NONE',  ( 0.0000000000000000000, -1.000000000000000000, 0.0000000000000000000 ) ) ;
#200 = CARTESIAN_POINT ( 'NONE',  ( 1.316288464743861212E-13, -4.616918432785521081E-15, 37.69999999999999574 ) ) ;
#201 = CC_DESIGN_APPROVAL ( #197, ( #71 ) ) ;
#202 = COORDINATED_UNIVERSAL_TIME_OFFSET ( 1, 0, .AHEAD. ) ;
#203 = VERTEX_POINT ( 'NONE', #180 ) ;
#204 = EDGE_CURVE ( 'NONE', #153, #153, #16, .T. ) ;
#205 =( NAMED_UNIT ( * ) SI_UNIT ( $, .STERADIAN. ) SOLID_ANGLE_UNIT ( ) );
#206 = CONICAL_SURFACE ( 'NONE', #151, 1.199999999999992184, 0.7853981633974468357 ) ;
#207 = EDGE_LOOP ( 'NONE', ( #131 ) ) ;
#208 = EDGE_LOOP ( 'NONE', ( #61 ) ) ;
#209 = CARTESIAN_POINT ( 'NONE',  ( 0.0000000000000000000, 0.0000000000000000000, 0.0000000000000000000 ) ) ;
#210 = FACE_OUTER_BOUND ( 'NONE', #95, .T. ) ;
#211 = AXIS2_PLACEMENT_3D ( 'NONE', #164, #83, #144 ) ;
#212 = CC_DESIGN_SECURITY_CLASSIFICATION ( #71, ( #126 ) ) ;
#213 = DIRECTION ( 'NONE',  ( 3.491481338843133355E-15, -1.219242935835426903E-16, 1.000000000000000000 ) ) ;
#214 = CARTESIAN_POINT ( 'NONE',  ( 2.094888803305878830E-15, -8.673617379884057659E-17, 0.5999999999999997558 ) ) ;
#215 = FACE_OUTER_BOUND ( 'NONE', #207, .T. ) ;
#216 = AXIS2_PLACEMENT_3D ( 'NONE', #143, #145, #80 ) ;
#217 = APPROVAL_DATE_TIME ( #92, #107 ) ;
#218 = AXIS2_PLACEMENT_3D ( 'NONE', #81, #161, #17 ) ;
#219 = APPLICATION_PROTOCOL_DEFINITION ( 'international standard', 'config_control_design', 1994, #108 ) ;
#220 =( NAMED_UNIT ( * ) PLANE_ANGLE_UNIT ( ) SI_UNIT ( $, .RADIAN. ) );
#221 = EDGE_CURVE ( 'NONE', #74, #74, #117, .T. ) ;
#222 = VERTEX_POINT ( 'NONE', #186 ) ;
#223 = AXIS2_PLACEMENT_3D ( 'NONE', #35, #102, #51 ) ;
#224 = EDGE_LOOP ( 'NONE', ( #195 ) ) ;
#225 = EDGE_LOOP ( 'NONE', ( #111 ) ) ;
#226 = APPROVAL_DATE_TIME ( #47, #170 ) ;
#227 = ORIENTED_EDGE ( 'NONE', *, *, #49, .T. ) ;
#228 = CLOSED_SHELL ( 'NONE', ( #24, #148, #174, #106, #6, #125 ) ) ;
#229 = AXIS2_PLACEMENT_3D ( 'NONE', #176, #213, #163 ) ;
#230 = CC_DESIGN_PERSON_AND_ORGANIZATION_ASSIGNMENT ( #173, #94, ( #71 ) ) ;
#231 = SECURITY_CLASSIFICATION_LEVEL ( 'unclassified' ) ;
#232 = DIRECTION ( 'NONE',  ( -3.491481338843133355E-15, 1.224646799147353207E-16, -1.000000000000000000 ) ) ;
#233 = CARTESIAN_POINT ( 'NONE',  ( 2.094888803305878830E-15, -8.673617379884057659E-17, 0.5999999999999997558 ) ) ;
#234 = PRODUCT_RELATED_PRODUCT_CATEGORY ( 'detail', '', ( #135 ) ) ;
#235 = DIRECTION ( 'NONE',  ( -3.491481338843133355E-15, 1.224646799147353207E-16, -1.000000000000000000 ) ) ;
#236 = APPROVAL_PERSON_ORGANIZATION ( #25, #107, #88 ) ;
#237 = PLANE ( 'NONE',  #114 ) ;
#238 = DIRECTION ( 'NONE',  ( 4.275831445896958607E-31, 1.000000000000000000, 1.224646799147353454E-16 ) ) ;
#239 = CARTESIAN_POINT ( 'NONE',  ( 2.094888803305877252E-15, -7.315457615012551802E-17, 0.5999999999999992006 ) ) ;
#240 = CIRCLE ( 'NONE', #159, 1.499999999999990452 ) ;
#241 = APPROVAL_PERSON_ORGANIZATION ( #60, #197, #7 ) ;
#242 = PERSON_AND_ORGANIZATION_ROLE ( 'creator' ) ;
#243 = APPROVAL_STATUS ( 'not_yet_approved' ) ;
ENDSEC;
END-ISO-10303-21;
