ISO-10303-21;
HEADER;
FILE_DESCRIPTION (( 'STEP AP203' ),
    '1' );
FILE_NAME ('60021.step',
    '2021-11-01T09:45:56',
    ( '' ),
    ( '' ),
    'SwSTEP 2.0',
    'SolidWorks 2019',
    '' );
FILE_SCHEMA (( 'CONFIG_CONTROL_DESIGN' ));
ENDSEC;

DATA;
#1 = CARTESIAN_POINT ( 'NONE',  ( 1.396592535537256892E-15, -0.09999999999999950595, 0.4000000000000010214 ) ) ;
#2 = COORDINATED_UNIVERSAL_TIME_OFFSET ( 1, 0, .AHEAD. ) ;
#3 = ADVANCED_FACE ( 'NONE', ( #224, #37 ), #52, .T. ) ;
#4 = DATE_TIME_ROLE ( 'classification_date' ) ;
#5 = AXIS2_PLACEMENT_3D ( 'NONE', #146, #169, #221 ) ;
#6 = EDGE_LOOP ( 'NONE', ( #142 ) ) ;
#7 = PERSON_AND_ORGANIZATION_ROLE ( 'creator' ) ;
#8 = EDGE_LOOP ( 'NONE', ( #233 ) ) ;
#9 = CIRCLE ( 'NONE', #101, 1.499999999999992895 ) ;
#10 = DIRECTION ( 'NONE',  ( -3.491481338843133355E-15, 1.224646799147353207E-16, -1.000000000000000000 ) ) ;
#11 = FACE_OUTER_BOUND ( 'NONE', #198, .T. ) ;
#12 = PLANE ( 'NONE',  #126 ) ;
#13 = ADVANCED_BREP_SHAPE_REPRESENTATION ( '60021', ( #138, #62, #47 ), #156 ) ;
#14 = PLANE ( 'NONE',  #100 ) ;
#15 = DIRECTION ( 'NONE',  ( 0.0000000000000000000, 1.000000000000000000, 0.0000000000000000000 ) ) ;
#16 = DATE_AND_TIME ( #191, #43 ) ;
#17 = CIRCLE ( 'NONE', #131, 0.1681483474218591068 ) ;
#18 = CARTESIAN_POINT ( 'NONE',  ( 1.316288464743861212E-13, 1.499999999999988232, 37.69999999999999574 ) ) ;
#19 = CARTESIAN_POINT ( 'NONE',  ( 1.326762908760390423E-13, 1.199999999999987521, 38.00000000000000000 ) ) ;
#20 = DIRECTION ( 'NONE',  ( 1.000000000000000000, 0.0000000000000000000, 0.0000000000000000000 ) ) ;
#21 = CIRCLE ( 'NONE', #42, 0.09999999999999945044 ) ;
#22 = CC_DESIGN_PERSON_AND_ORGANIZATION_ASSIGNMENT ( #25, #7, ( #77 ) ) ;
#23 = DATE_AND_TIME ( #232, #102 ) ;
#24 = ORIENTED_EDGE ( 'NONE', *, *, #136, .T. ) ;
#25 = PERSON_AND_ORGANIZATION ( #180, #210 ) ;
#26 = CIRCLE ( 'NONE', #166, 0.09999999999999766020 ) ;
#27 = EDGE_LOOP ( 'NONE', ( #29 ) ) ;
#28 = ADVANCED_FACE ( 'NONE', ( #88, #149 ), #222, .T. ) ;
#29 = ORIENTED_EDGE ( 'NONE', *, *, #133, .T. ) ;
#30 = APPROVAL_STATUS ( 'not_yet_approved' ) ;
#31 = EDGE_LOOP ( 'NONE', ( #144 ) ) ;
#32 = DIRECTION ( 'NONE',  ( 0.0000000000000000000, -1.000000000000000000, 0.0000000000000000000 ) ) ;
#33 = AXIS2_PLACEMENT_3D ( 'NONE', #205, #113, #168 ) ;
#34 = APPROVAL ( #30, 'UNSPECIFIED' ) ;
#35 = CARTESIAN_POINT ( 'NONE',  ( 1.396592535537256892E-15, -4.876971743341720307E-17, 0.4000000000000010214 ) ) ;
#36 = DIRECTION ( 'NONE',  ( 3.491481338843133355E-15, -1.219242935835426903E-16, 1.000000000000000000 ) ) ;
#37 = FACE_BOUND ( 'NONE', #27, .T. ) ;
#38 = APPROVAL ( #193, 'UNSPECIFIED' ) ;
#39 = AXIS2_PLACEMENT_3D ( 'NONE', #151, #165, #75 ) ;
#40 = CARTESIAN_POINT ( 'NONE',  ( 1.326762908760390423E-13, -4.653657836759941941E-15, 38.00000000000000000 ) ) ;
#41 = PERSON_AND_ORGANIZATION_ROLE ( 'creator' ) ;
#42 = AXIS2_PLACEMENT_3D ( 'NONE', #63, #185, #58 ) ;
#43 = LOCAL_TIME ( 10, 45, 56.00000000000000000, #117 ) ;
#44 = PLANE ( 'NONE',  #215 ) ;
#45 = CARTESIAN_POINT ( 'NONE',  ( 1.396592535537256498E-15, 1.124819836996384448E-32, 0.4000000000000009659 ) ) ;
#46 = VERTEX_POINT ( 'NONE', #19 ) ;
#47 = AXIS2_PLACEMENT_3D ( 'NONE', #120, #194, #20 ) ;
#48 = CALENDAR_DATE ( 2021, 1, 11 ) ;
#49 = DATE_AND_TIME ( #140, #122 ) ;
#50 = CC_DESIGN_DATE_AND_TIME_ASSIGNMENT ( #23, #4, ( #217 ) ) ;
#51 = SECURITY_CLASSIFICATION_LEVEL ( 'unclassified' ) ;
#52 = CONICAL_SURFACE ( 'NONE', #74, 1.199999999999992184, 0.7853981633974468357 ) ;
#53 = LOCAL_TIME ( 10, 45, 56.00000000000000000, #226 ) ;
#54 = APPROVAL_DATE_TIME ( #84, #38 ) ;
#55 = ORIENTED_EDGE ( 'NONE', *, *, #184, .T. ) ;
#56 = CARTESIAN_POINT ( 'NONE',  ( -1.924129419174264339E-30, 6.748937501461144163E-32, -5.510925685805913103E-16 ) ) ;
#57 = ADVANCED_FACE ( 'NONE', ( #237 ), #12, .F. ) ;
#58 = DIRECTION ( 'NONE',  ( 0.0000000000000000000, -1.000000000000000000, 0.0000000000000000000 ) ) ;
#59 = CIRCLE ( 'NONE', #96, 0.09999999999999945044 ) ;
#60 = DIRECTION ( 'NONE',  ( -3.491481338843133355E-15, 1.224646799147353207E-16, -1.000000000000000000 ) ) ;
#61 = DIRECTION ( 'NONE',  ( 4.275831445896958607E-31, 1.000000000000000000, 1.224646799147353454E-16 ) ) ;
#62 = MANIFOLD_SOLID_BREP ( 'Corps-Déplacer/Copier1[2]', #182 ) ;
#63 = CARTESIAN_POINT ( 'NONE',  ( 1.396592535537256892E-15, -4.876971743341720307E-17, 0.4000000000000010214 ) ) ;
#64 = CALENDAR_DATE ( 2021, 1, 11 ) ;
#65 =( LENGTH_UNIT ( ) NAMED_UNIT ( * ) SI_UNIT ( .MILLI., .METRE. ) );
#66 = EDGE_CURVE ( 'NONE', #243, #243, #161, .T. ) ;
#67 = CARTESIAN_POINT ( 'NONE',  ( -4.574772834392779606E-30, -0.09999999999999766020, -1.310267015749992185E-15 ) ) ;
#68 = CARTESIAN_POINT ( 'NONE',  ( 3.203916267762506962E-15, -0.1681483474218591900, 0.9176380902050279564 ) ) ;
#69 = PRODUCT_DEFINITION ( 'UNKNOWN', '', #77, #85 ) ;
#70 = PERSON_AND_ORGANIZATION_ROLE ( 'design_supplier' ) ;
#71 = ORIENTED_EDGE ( 'NONE', *, *, #147, .F. ) ;
#72 = DIRECTION ( 'NONE',  ( 0.0000000000000000000, 1.000000000000000000, 0.0000000000000000000 ) ) ;
#73 = DIRECTION ( 'NONE',  ( -3.491481338843133355E-15, 1.224646799147353207E-16, -1.000000000000000000 ) ) ;
#74 = AXIS2_PLACEMENT_3D ( 'NONE', #40, #73, #239 ) ;
#75 = DIRECTION ( 'NONE',  ( -4.256963957985708889E-31, -1.000000000000000000, -1.219242935835426903E-16 ) ) ;
#76 = DIRECTION ( 'NONE',  ( 3.491481338843133355E-15, -1.219242935835426903E-16, 1.000000000000000000 ) ) ;
#77 = PRODUCT_DEFINITION_FORMATION_WITH_SPECIFIED_SOURCE ( 'ANY', '', #115, .NOT_KNOWN. ) ;
#78 = VERTEX_POINT ( 'NONE', #18 ) ;
#79 = PERSON_AND_ORGANIZATION ( #180, #210 ) ;
#80 = LOCAL_TIME ( 10, 45, 56.00000000000000000, #2 ) ;
#81 = CC_DESIGN_PERSON_AND_ORGANIZATION_ASSIGNMENT ( #160, #159, ( #217 ) ) ;
#82 = VERTEX_POINT ( 'NONE', #154 ) ;
#83 = SHAPE_DEFINITION_REPRESENTATION ( #212, #13 ) ;
#84 = DATE_AND_TIME ( #48, #80 ) ;
#85 = DESIGN_CONTEXT ( 'detailed design', #200, 'design' ) ;
#86 = EDGE_LOOP ( 'NONE', ( #175 ) ) ;
#87 = FACE_OUTER_BOUND ( 'NONE', #196, .T. ) ;
#88 = FACE_OUTER_BOUND ( 'NONE', #202, .T. ) ;
#89 = EDGE_CURVE ( 'NONE', #78, #78, #9, .T. ) ;
#90 = CARTESIAN_POINT ( 'NONE',  ( 1.326762908760390423E-13, 8.998558695971017012E-33, 38.00000000000000000 ) ) ;
#91 = CC_DESIGN_APPROVAL ( #116, ( #69 ) ) ;
#92 = DIRECTION ( 'NONE',  ( 3.491481338843133355E-15, -1.224646799147353207E-16, 1.000000000000000000 ) ) ;
#93 = DIRECTION ( 'NONE',  ( 0.0000000000000000000, -1.000000000000000000, 0.0000000000000000000 ) ) ;
#94 = CC_DESIGN_PERSON_AND_ORGANIZATION_ASSIGNMENT ( #104, #70, ( #77 ) ) ;
#95 = DATE_TIME_ROLE ( 'creation_date' ) ;
#96 = AXIS2_PLACEMENT_3D ( 'NONE', #35, #76, #111 ) ;
#97 = DIRECTION ( 'NONE',  ( 3.491481338843133355E-15, -1.219242935835426903E-16, 1.000000000000000000 ) ) ;
#98 = CARTESIAN_POINT ( 'NONE',  ( -4.532203194812923454E-30, 1.582668269645498626E-31, -1.298074586391638172E-15 ) ) ;
#99 = ADVANCED_FACE ( 'NONE', ( #145, #188 ), #109, .T. ) ;
#100 = AXIS2_PLACEMENT_3D ( 'NONE', #56, #92, #150 ) ;
#101 = AXIS2_PLACEMENT_3D ( 'NONE', #130, #223, #15 ) ;
#102 = LOCAL_TIME ( 10, 45, 56.00000000000000000, #201 ) ;
#103 = APPROVAL_ROLE ( '' ) ;
#104 = PERSON_AND_ORGANIZATION ( #180, #210 ) ;
#105 = EDGE_LOOP ( 'NONE', ( #24 ) ) ;
#106 = ORIENTED_EDGE ( 'NONE', *, *, #66, .F. ) ;
#107 = ADVANCED_FACE ( 'NONE', ( #110 ), #14, .F. ) ;
#108 = EDGE_LOOP ( 'NONE', ( #220 ) ) ;
#109 = CONICAL_SURFACE ( 'NONE', #5, 2.499999999999992450, 0.2617993877991428575 ) ;
#110 = FACE_OUTER_BOUND ( 'NONE', #123, .T. ) ;
#111 = DIRECTION ( 'NONE',  ( 0.0000000000000000000, -1.000000000000000000, 0.0000000000000000000 ) ) ;
#112 = DIRECTION ( 'NONE',  ( -4.329829095067823285E-31, -1.000000000000000000, -1.219242935835426903E-16 ) ) ;
#113 = DIRECTION ( 'NONE',  ( 3.491481338843133355E-15, -1.224646799147353207E-16, 1.000000000000000000 ) ) ;
#114 = FACE_OUTER_BOUND ( 'NONE', #86, .T. ) ;
#115 = PRODUCT ( '60021', '60021', '', ( #135 ) ) ;
#116 = APPROVAL ( #241, 'UNSPECIFIED' ) ;
#117 = COORDINATED_UNIVERSAL_TIME_OFFSET ( 1, 0, .AHEAD. ) ;
#118 = PERSON_AND_ORGANIZATION ( #180, #210 ) ;
#119 =( NAMED_UNIT ( * ) PLANE_ANGLE_UNIT ( ) SI_UNIT ( $, .RADIAN. ) );
#120 = CARTESIAN_POINT ( 'NONE',  ( 0.0000000000000000000, 0.0000000000000000000, 0.0000000000000000000 ) ) ;
#121 = DIRECTION ( 'NONE',  ( 3.491481338843133355E-15, -1.224646799147353207E-16, 1.000000000000000000 ) ) ;
#122 = LOCAL_TIME ( 10, 45, 56.00000000000000000, #141 ) ;
#123 = EDGE_LOOP ( 'NONE', ( #124 ) ) ;
#124 = ORIENTED_EDGE ( 'NONE', *, *, #235, .F. ) ;
#125 = CARTESIAN_POINT ( 'NONE',  ( 3.203916267762506962E-15, -1.118823759135992617E-16, 0.9176380902050279564 ) ) ;
#126 = AXIS2_PLACEMENT_3D ( 'NONE', #90, #60, #132 ) ;
#127 = CARTESIAN_POINT ( 'NONE',  ( 0.0000000000000000000, 0.0000000000000000000, 0.0000000000000000000 ) ) ;
#128 = CC_DESIGN_DATE_AND_TIME_ASSIGNMENT ( #16, #95, ( #69 ) ) ;
#129 = FACE_OUTER_BOUND ( 'NONE', #8, .T. ) ;
#130 = CARTESIAN_POINT ( 'NONE',  ( 1.316288464743861212E-13, -4.616918432785521081E-15, 37.69999999999999574 ) ) ;
#131 = AXIS2_PLACEMENT_3D ( 'NONE', #125, #203, #32 ) ;
#132 = DIRECTION ( 'NONE',  ( 4.275831445896958607E-31, 1.000000000000000000, 1.224646799147353207E-16 ) ) ;
#133 = EDGE_CURVE ( 'NONE', #46, #46, #242, .T. ) ;
#134 = APPROVAL_DATE_TIME ( #214, #116 ) ;
#135 = MECHANICAL_CONTEXT ( 'NONE', #189, 'mechanical' ) ;
#136 = EDGE_CURVE ( 'NONE', #152, #152, #17, .T. ) ;
#137 =( NAMED_UNIT ( * ) SI_UNIT ( $, .STERADIAN. ) SOLID_ANGLE_UNIT ( ) );
#138 = MANIFOLD_SOLID_BREP ( 'Corps-Déplacer/Copier1[1]', #230 ) ;
#139 = CC_DESIGN_PERSON_AND_ORGANIZATION_ASSIGNMENT ( #211, #41, ( #69 ) ) ;
#140 = CALENDAR_DATE ( 2021, 1, 11 ) ;
#141 = COORDINATED_UNIVERSAL_TIME_OFFSET ( 1, 0, .AHEAD. ) ;
#142 = ORIENTED_EDGE ( 'NONE', *, *, #136, .F. ) ;
#143 = PRODUCT_RELATED_PRODUCT_CATEGORY ( 'detail', '', ( #115 ) ) ;
#144 = ORIENTED_EDGE ( 'NONE', *, *, #133, .F. ) ;
#145 = FACE_BOUND ( 'NONE', #105, .T. ) ;
#146 = CARTESIAN_POINT ( 'NONE',  ( 3.358884281319376057E-14, -1.172939372960887447E-15, 9.620226933340299880 ) ) ;
#147 = EDGE_CURVE ( 'NONE', #82, #82, #21, .T. ) ;
#148 = TOROIDAL_SURFACE ( 'NONE', #177, 2.099999999999999645, 2.000000000000000000 ) ;
#149 = FACE_OUTER_BOUND ( 'NONE', #179, .T. ) ;
#150 = DIRECTION ( 'NONE',  ( -4.275831445896958607E-31, -1.000000000000000000, -1.224646799147353207E-16 ) ) ;
#151 = CARTESIAN_POINT ( 'NONE',  ( 0.0000000000000000000, 0.0000000000000000000, 0.0000000000000000000 ) ) ;
#152 = VERTEX_POINT ( 'NONE', #68 ) ;
#153 = APPROVAL_PERSON_ORGANIZATION ( #218, #34, #197 ) ;
#154 = CARTESIAN_POINT ( 'NONE',  ( 1.396592535537256892E-15, -0.09999999999999950595, 0.4000000000000010214 ) ) ;
#155 = APPLICATION_PROTOCOL_DEFINITION ( 'international standard', 'config_control_design', 1994, #200 ) ;
#156 =( GEOMETRIC_REPRESENTATION_CONTEXT ( 3 ) GLOBAL_UNCERTAINTY_ASSIGNED_CONTEXT ( ( #163 ) ) GLOBAL_UNIT_ASSIGNED_CONTEXT ( ( #65, #119, #137 ) ) REPRESENTATION_CONTEXT ( 'NONE', 'WORKASPACE' ) );
#157 = PERSON_AND_ORGANIZATION_ROLE ( 'design_owner' ) ;
#158 = CC_DESIGN_PERSON_AND_ORGANIZATION_ASSIGNMENT ( #79, #157, ( #115 ) ) ;
#159 = PERSON_AND_ORGANIZATION_ROLE ( 'classification_officer' ) ;
#160 = PERSON_AND_ORGANIZATION ( #180, #210 ) ;
#161 = CIRCLE ( 'NONE', #209, 1.499999999999990452 ) ;
#162 = EDGE_LOOP ( 'NONE', ( #234 ) ) ;
#163 = UNCERTAINTY_MEASURE_WITH_UNIT (LENGTH_MEASURE( 1.000000000000000082E-05 ), #65, 'distance_accuracy_value', 'NONE');
#164 = DIRECTION ( 'NONE',  ( -3.491481338843133355E-15, 1.219242935835426903E-16, -1.000000000000000000 ) ) ;
#165 = DIRECTION ( 'NONE',  ( 3.491481338843133355E-15, -1.219242935835426903E-16, 1.000000000000000000 ) ) ;
#166 = AXIS2_PLACEMENT_3D ( 'NONE', #98, #97, #216 ) ;
#167 = FACE_OUTER_BOUND ( 'NONE', #162, .T. ) ;
#168 = DIRECTION ( 'NONE',  ( -4.275831445896958607E-31, -1.000000000000000000, -1.224646799147353207E-16 ) ) ;
#169 = DIRECTION ( 'NONE',  ( 3.491481338843133355E-15, -1.219242935835426903E-16, 1.000000000000000000 ) ) ;
#170 = VERTEX_POINT ( 'NONE', #67 ) ;
#171 = DIRECTION ( 'NONE',  ( -4.275831445896958607E-31, -1.000000000000000000, -1.224646799147353207E-16 ) ) ;
#172 = ADVANCED_FACE ( 'NONE', ( #114, #87 ), #238, .T. ) ;
#173 = CARTESIAN_POINT ( 'NONE',  ( 2.055845706295221384E-14, -1.499999999999991118, 5.888176125771318326 ) ) ;
#174 = APPROVAL_DATE_TIME ( #49, #34 ) ;
#175 = ORIENTED_EDGE ( 'NONE', *, *, #89, .T. ) ;
#176 = ADVANCED_FACE ( 'NONE', ( #167 ), #186, .F. ) ;
#177 = AXIS2_PLACEMENT_3D ( 'NONE', #206, #36, #112 ) ;
#178 = ORIENTED_EDGE ( 'NONE', *, *, #89, .F. ) ;
#179 = EDGE_LOOP ( 'NONE', ( #71 ) ) ;
#180 = PERSON ( 'UNSPECIFIED', 'UNSPECIFIED', 'UNSPECIFIED', ('UNSPECIFIED'), ('UNSPECIFIED'), ('UNSPECIFIED') ) ;
#181 = EDGE_LOOP ( 'NONE', ( #178 ) ) ;
#182 = CLOSED_SHELL ( 'NONE', ( #213, #28, #107 ) ) ;
#183 = CC_DESIGN_APPROVAL ( #38, ( #77 ) ) ;
#184 = EDGE_CURVE ( 'NONE', #228, #228, #59, .T. ) ;
#185 = DIRECTION ( 'NONE',  ( 3.491481338843133355E-15, -1.219242935835426903E-16, 1.000000000000000000 ) ) ;
#186 = PLANE ( 'NONE',  #33 ) ;
#187 = APPROVAL_PERSON_ORGANIZATION ( #229, #116, #103 ) ;
#188 = FACE_OUTER_BOUND ( 'NONE', #108, .T. ) ;
#189 = APPLICATION_CONTEXT ( 'configuration controlled 3d designs of mechanical parts and assemblies' ) ;
#190 = CARTESIAN_POINT ( 'NONE',  ( 2.055845706295221384E-14, -7.179117146301492218E-16, 5.888176125771318326 ) ) ;
#191 = CALENDAR_DATE ( 2021, 1, 11 ) ;
#192 = ADVANCED_FACE ( 'NONE', ( #11, #225 ), #148, .F. ) ;
#193 = APPROVAL_STATUS ( 'not_yet_approved' ) ;
#194 = DIRECTION ( 'NONE',  ( 0.0000000000000000000, 0.0000000000000000000, 1.000000000000000000 ) ) ;
#195 = APPROVAL_ROLE ( '' ) ;
#196 = EDGE_LOOP ( 'NONE', ( #106 ) ) ;
#197 = APPROVAL_ROLE ( '' ) ;
#198 = EDGE_LOOP ( 'NONE', ( #55 ) ) ;
#199 = CC_DESIGN_SECURITY_CLASSIFICATION ( #217, ( #77 ) ) ;
#200 = APPLICATION_CONTEXT ( 'configuration controlled 3d designs of mechanical parts and assemblies' ) ;
#201 = COORDINATED_UNIVERSAL_TIME_OFFSET ( 1, 0, .AHEAD. ) ;
#202 = EDGE_LOOP ( 'NONE', ( #236 ) ) ;
#203 = DIRECTION ( 'NONE',  ( 3.491481338843133355E-15, -1.219242935835426903E-16, 1.000000000000000000 ) ) ;
#204 = AXIS2_PLACEMENT_3D ( 'NONE', #127, #240, #61 ) ;
#205 = CARTESIAN_POINT ( 'NONE',  ( 1.396592535537256498E-15, 1.124819836996384448E-32, 0.4000000000000009659 ) ) ;
#206 = CARTESIAN_POINT ( 'NONE',  ( 1.396592535537256103E-15, 0.0000000000000000000, 0.4000000000000007994 ) ) ;
#207 = CARTESIAN_POINT ( 'NONE',  ( 1.326762908760390423E-13, -4.653657836759941941E-15, 38.00000000000000000 ) ) ;
#208 = AXIS2_PLACEMENT_3D ( 'NONE', #207, #10, #72 ) ;
#209 = AXIS2_PLACEMENT_3D ( 'NONE', #190, #164, #93 ) ;
#210 = ORGANIZATION ( 'UNSPECIFIED', 'UNSPECIFIED', '' ) ;
#211 = PERSON_AND_ORGANIZATION ( #180, #210 ) ;
#212 = PRODUCT_DEFINITION_SHAPE ( 'NONE', 'NONE',  #69 ) ;
#213 = ADVANCED_FACE ( 'NONE', ( #129 ), #44, .T. ) ;
#214 = DATE_AND_TIME ( #64, #53 ) ;
#215 = AXIS2_PLACEMENT_3D ( 'NONE', #45, #121, #171 ) ;
#216 = DIRECTION ( 'NONE',  ( -4.256963957985702758E-31, -1.000000000000000000, -1.219242935835423205E-16 ) ) ;
#217 = SECURITY_CLASSIFICATION ( '', '', #51 ) ;
#218 = PERSON_AND_ORGANIZATION ( #180, #210 ) ;
#219 = CC_DESIGN_APPROVAL ( #34, ( #217 ) ) ;
#220 = ORIENTED_EDGE ( 'NONE', *, *, #66, .T. ) ;
#221 = DIRECTION ( 'NONE',  ( 0.0000000000000000000, -1.000000000000000000, 0.0000000000000000000 ) ) ;
#222 = CYLINDRICAL_SURFACE ( 'NONE', #39, 0.09999999999999854838 ) ;
#223 = DIRECTION ( 'NONE',  ( -3.491481338843133355E-15, 1.224646799147353207E-16, -1.000000000000000000 ) ) ;
#224 = FACE_OUTER_BOUND ( 'NONE', #181, .T. ) ;
#225 = FACE_OUTER_BOUND ( 'NONE', #6, .T. ) ;
#226 = COORDINATED_UNIVERSAL_TIME_OFFSET ( 1, 0, .AHEAD. ) ;
#227 = APPLICATION_PROTOCOL_DEFINITION ( 'international standard', 'config_control_design', 1994, #189 ) ;
#228 = VERTEX_POINT ( 'NONE', #1 ) ;
#229 = PERSON_AND_ORGANIZATION ( #180, #210 ) ;
#230 = CLOSED_SHELL ( 'NONE', ( #172, #3, #57, #99, #192, #176 ) ) ;
#231 = APPROVAL_PERSON_ORGANIZATION ( #118, #38, #195 ) ;
#232 = CALENDAR_DATE ( 2021, 1, 11 ) ;
#233 = ORIENTED_EDGE ( 'NONE', *, *, #147, .T. ) ;
#234 = ORIENTED_EDGE ( 'NONE', *, *, #184, .F. ) ;
#235 = EDGE_CURVE ( 'NONE', #170, #170, #26, .T. ) ;
#236 = ORIENTED_EDGE ( 'NONE', *, *, #235, .T. ) ;
#237 = FACE_OUTER_BOUND ( 'NONE', #31, .T. ) ;
#238 = CYLINDRICAL_SURFACE ( 'NONE', #204, 1.499999999999990452 ) ;
#239 = DIRECTION ( 'NONE',  ( 0.0000000000000000000, 1.000000000000000000, 0.0000000000000000000 ) ) ;
#240 = DIRECTION ( 'NONE',  ( -3.491481338843133355E-15, 1.224646799147353207E-16, -1.000000000000000000 ) ) ;
#241 = APPROVAL_STATUS ( 'not_yet_approved' ) ;
#242 = CIRCLE ( 'NONE', #208, 1.199999999999992184 ) ;
#243 = VERTEX_POINT ( 'NONE', #173 ) ;
ENDSEC;
END-ISO-10303-21;
