ISO-10303-21;
HEADER;
FILE_DESCRIPTION (( 'STEP AP203' ),
    '1' );
FILE_NAME ('59610.step',
    '2021-10-08T05:54:07',
    ( '' ),
    ( '' ),
    'SwSTEP 2.0',
    'SolidWorks 2019',
    '' );
FILE_SCHEMA (( 'CONFIG_CONTROL_DESIGN' ));
ENDSEC;

DATA;
#1 = UNCERTAINTY_MEASURE_WITH_UNIT (LENGTH_MEASURE( 1.000000000000000082E-05 ), #158, 'distance_accuracy_value', 'NONE');
#2 = CYLINDRICAL_SURFACE ( 'NONE', #10, 0.7499999999999988898 ) ;
#3 = AXIS2_PLACEMENT_3D ( 'NONE', #104, #128, #196 ) ;
#4 = PERSON_AND_ORGANIZATION_ROLE ( 'design_supplier' ) ;
#5 = PERSON_AND_ORGANIZATION ( #130, #168 ) ;
#6 = PERSON_AND_ORGANIZATION ( #130, #168 ) ;
#7 = ADVANCED_FACE ( 'NONE', ( #216 ), #58, .T. ) ;
#8 = PERSON_AND_ORGANIZATION ( #130, #168 ) ;
#9 = ORIENTED_EDGE ( 'NONE', *, *, #86, .F. ) ;
#10 = AXIS2_PLACEMENT_3D ( 'NONE', #191, #74, #22 ) ;
#11 = FACE_OUTER_BOUND ( 'NONE', #202, .T. ) ;
#12 = CARTESIAN_POINT ( 'NONE',  ( 1.040461438975253740E-13, -3.649447461459112464E-15, 29.80000000000000071 ) ) ;
#13 = PLANE ( 'NONE',  #182 ) ;
#14 = EDGE_LOOP ( 'NONE', ( #9 ) ) ;
#15 = LOCAL_TIME ( 7, 54, 7.000000000000000000, #181 ) ;
#16 = CIRCLE ( 'NONE', #144, 0.6100000000000010969 ) ;
#17 = PLANE ( 'NONE',  #107 ) ;
#18 = PLANE ( 'NONE',  #179 ) ;
#19 = CARTESIAN_POINT ( 'NONE',  ( 3.491481338843133986E-14, 0.6099999999999998757, 10.00000000000000178 ) ) ;
#20 =( GEOMETRIC_REPRESENTATION_CONTEXT ( 3 ) GLOBAL_UNCERTAINTY_ASSIGNED_CONTEXT ( ( #1 ) ) GLOBAL_UNIT_ASSIGNED_CONTEXT ( ( #158, #38, #89 ) ) REPRESENTATION_CONTEXT ( 'NONE', 'WORKASPACE' ) );
#21 = FACE_OUTER_BOUND ( 'NONE', #14, .T. ) ;
#22 = DIRECTION ( 'NONE',  ( 4.275831445896959482E-31, 1.000000000000000000, 1.224646799147353207E-16 ) ) ;
#23 = SHAPE_DEFINITION_REPRESENTATION ( #136, #43 ) ;
#24 = CIRCLE ( 'NONE', #57, 0.7500000000000001110 ) ;
#25 = APPLICATION_PROTOCOL_DEFINITION ( 'international standard', 'config_control_design', 1994, #193 ) ;
#26 = DESIGN_CONTEXT ( 'detailed design', #193, 'design' ) ;
#27 = DATE_AND_TIME ( #180, #68 ) ;
#28 = PERSON_AND_ORGANIZATION ( #130, #168 ) ;
#29 = CLOSED_SHELL ( 'NONE', ( #124, #52, #129, #153, #113 ) ) ;
#30 = ORIENTED_EDGE ( 'NONE', *, *, #42, .T. ) ;
#31 = DIRECTION ( 'NONE',  ( 0.0000000000000000000, 1.000000000000000000, 0.0000000000000000000 ) ) ;
#32 = DIRECTION ( 'NONE',  ( 3.491481338843133355E-15, -1.224646799147353207E-16, 1.000000000000000000 ) ) ;
#33 = MANIFOLD_SOLID_BREP ( 'Corps-Déplacer/Copier1[2]', #172 ) ;
#34 = FACE_OUTER_BOUND ( 'NONE', #185, .T. ) ;
#35 = CC_DESIGN_PERSON_AND_ORGANIZATION_ASSIGNMENT ( #28, #64, ( #170 ) ) ;
#36 = FACE_OUTER_BOUND ( 'NONE', #69, .T. ) ;
#37 = DIRECTION ( 'NONE',  ( 0.0000000000000000000, 1.000000000000000000, 0.0000000000000000000 ) ) ;
#38 =( NAMED_UNIT ( * ) PLANE_ANGLE_UNIT ( ) SI_UNIT ( $, .RADIAN. ) );
#39 = LOCAL_TIME ( 7, 54, 7.000000000000000000, #91 ) ;
#40 = CC_DESIGN_PERSON_AND_ORGANIZATION_ASSIGNMENT ( #178, #212, ( #143 ) ) ;
#41 = APPROVAL_DATE_TIME ( #195, #215 ) ;
#42 = EDGE_CURVE ( 'NONE', #194, #194, #112, .T. ) ;
#43 = ADVANCED_BREP_SHAPE_REPRESENTATION ( '59610', ( #102, #33, #3 ), #20 ) ;
#44 = CALENDAR_DATE ( 2021, 8, 10 ) ;
#45 = APPROVAL_STATUS ( 'not_yet_approved' ) ;
#46 = CONICAL_SURFACE ( 'NONE', #98, 0.5500000000000000444, 0.7853981633974516097 ) ;
#47 = CIRCLE ( 'NONE', #155, 0.6100000000000010969 ) ;
#48 = EDGE_CURVE ( 'NONE', #137, #137, #16, .T. ) ;
#49 = CC_DESIGN_APPROVAL ( #121, ( #206 ) ) ;
#50 = ORIENTED_EDGE ( 'NONE', *, *, #42, .F. ) ;
#51 = ORIENTED_EDGE ( 'NONE', *, *, #48, .T. ) ;
#52 = ADVANCED_FACE ( 'NONE', ( #167, #11 ), #75, .T. ) ;
#53 = FACE_BOUND ( 'NONE', #204, .T. ) ;
#54 = CC_DESIGN_APPROVAL ( #215, ( #56 ) ) ;
#55 = VERTEX_POINT ( 'NONE', #222 ) ;
#56 = PRODUCT_DEFINITION ( 'UNKNOWN', '', #206, #26 ) ;
#57 = AXIS2_PLACEMENT_3D ( 'NONE', #12, #187, #82 ) ;
#58 = CONICAL_SURFACE ( 'NONE', #183, 0.6099999999999988765, 1.047197551196592746 ) ;
#59 = PERSON_AND_ORGANIZATION ( #130, #168 ) ;
#60 = CC_DESIGN_PERSON_AND_ORGANIZATION_ASSIGNMENT ( #8, #4, ( #206 ) ) ;
#61 = PERSON_AND_ORGANIZATION_ROLE ( 'creator' ) ;
#62 = AXIS2_PLACEMENT_3D ( 'NONE', #203, #151, #116 ) ;
#63 = DATE_TIME_ROLE ( 'creation_date' ) ;
#64 = PERSON_AND_ORGANIZATION_ROLE ( 'design_owner' ) ;
#65 = DIRECTION ( 'NONE',  ( -3.491481338843133355E-15, 1.224646799147353207E-16, -1.000000000000000000 ) ) ;
#66 = CARTESIAN_POINT ( 'NONE',  ( 3.491481338843133986E-14, -1.224646799147353454E-15, 10.00000000000000178 ) ) ;
#67 = CARTESIAN_POINT ( 'NONE',  ( 3.491481338843133986E-14, -1.224646799147353454E-15, 10.00000000000000178 ) ) ;
#68 = LOCAL_TIME ( 7, 54, 7.000000000000000000, #164 ) ;
#69 = EDGE_LOOP ( 'NONE', ( #188 ) ) ;
#70 = APPROVAL_PERSON_ORGANIZATION ( #160, #121, #213 ) ;
#71 = CARTESIAN_POINT ( 'NONE',  ( 1.047444401652940007E-13, -3.673940397442059178E-15, 30.00000000000000000 ) ) ;
#72 = PRODUCT_RELATED_PRODUCT_CATEGORY ( 'detail', '', ( #170 ) ) ;
#73 = FACE_OUTER_BOUND ( 'NONE', #149, .T. ) ;
#74 = DIRECTION ( 'NONE',  ( -3.491481338843133355E-15, 1.224646799147353207E-16, -1.000000000000000000 ) ) ;
#75 = CONICAL_SURFACE ( 'NONE', #62, 0.7499999999999976685, 0.5235987755982944858 ) ;
#76 = SECURITY_CLASSIFICATION_LEVEL ( 'unclassified' ) ;
#77 = EDGE_CURVE ( 'NONE', #175, #175, #47, .T. ) ;
#78 = DATE_TIME_ROLE ( 'classification_date' ) ;
#79 = DATE_AND_TIME ( #198, #163 ) ;
#80 = CC_DESIGN_DATE_AND_TIME_ASSIGNMENT ( #79, #78, ( #143 ) ) ;
#81 = EDGE_LOOP ( 'NONE', ( #132 ) ) ;
#82 = DIRECTION ( 'NONE',  ( 0.0000000000000000000, 1.000000000000000000, 0.0000000000000000000 ) ) ;
#83 = ORIENTED_EDGE ( 'NONE', *, *, #146, .F. ) ;
#84 = AXIS2_PLACEMENT_3D ( 'NONE', #120, #140, #142 ) ;
#85 = EDGE_LOOP ( 'NONE', ( #156 ) ) ;
#86 = EDGE_CURVE ( 'NONE', #55, #55, #24, .T. ) ;
#87 = DIRECTION ( 'NONE',  ( -4.275831445896958607E-31, -1.000000000000000000, -1.224646799147353207E-16 ) ) ;
#88 = VERTEX_POINT ( 'NONE', #221 ) ;
#89 =( NAMED_UNIT ( * ) SI_UNIT ( $, .STERADIAN. ) SOLID_ANGLE_UNIT ( ) );
#90 = COORDINATED_UNIVERSAL_TIME_OFFSET ( 1, 0, .AHEAD. ) ;
#91 = COORDINATED_UNIVERSAL_TIME_OFFSET ( 1, 0, .AHEAD. ) ;
#92 = CC_DESIGN_PERSON_AND_ORGANIZATION_ASSIGNMENT ( #6, #61, ( #206 ) ) ;
#93 = COORDINATED_UNIVERSAL_TIME_OFFSET ( 1, 0, .AHEAD. ) ;
#94 = DIRECTION ( 'NONE',  ( 0.0000000000000000000, 1.000000000000000000, 0.0000000000000000000 ) ) ;
#95 = DIRECTION ( 'NONE',  ( -3.491481338843133355E-15, 1.224646799147353207E-16, -1.000000000000000000 ) ) ;
#96 = ORIENTED_EDGE ( 'NONE', *, *, #146, .T. ) ;
#97 = ORIENTED_EDGE ( 'NONE', *, *, #77, .T. ) ;
#98 = AXIS2_PLACEMENT_3D ( 'NONE', #189, #173, #174 ) ;
#99 = DIRECTION ( 'NONE',  ( 3.491481338843133355E-15, -1.224646799147353207E-16, 1.000000000000000000 ) ) ;
#100 = CARTESIAN_POINT ( 'NONE',  ( 3.491481338843133986E-14, -2.078680878889580519E-31, 10.00000000000000178 ) ) ;
#101 = CARTESIAN_POINT ( 'NONE',  ( 0.0000000000000000000, 0.0000000000000000000, 0.0000000000000000000 ) ) ;
#102 = MANIFOLD_SOLID_BREP ( 'Corps-Déplacer/Copier1[1]', #29 ) ;
#103 = DIRECTION ( 'NONE',  ( 3.491481338843133355E-15, -1.224646799147353207E-16, 1.000000000000000000 ) ) ;
#104 = CARTESIAN_POINT ( 'NONE',  ( 0.0000000000000000000, 0.0000000000000000000, 0.0000000000000000000 ) ) ;
#105 = APPROVAL_DATE_TIME ( #27, #165 ) ;
#106 = DATE_AND_TIME ( #125, #123 ) ;
#107 = AXIS2_PLACEMENT_3D ( 'NONE', #100, #99, #87 ) ;
#108 = DATE_AND_TIME ( #161, #15 ) ;
#109 = APPROVAL_STATUS ( 'not_yet_approved' ) ;
#110 = PERSON_AND_ORGANIZATION_ROLE ( 'creator' ) ;
#111 = APPROVAL_PERSON_ORGANIZATION ( #127, #215, #214 ) ;
#112 = CIRCLE ( 'NONE', #211, 0.7499999999999976685 ) ;
#113 = ADVANCED_FACE ( 'NONE', ( #218 ), #13, .F. ) ;
#114 = CARTESIAN_POINT ( 'NONE',  ( 3.576145261858901583E-14, -1.254342905831650550E-15, 10.24248711305964044 ) ) ;
#115 = DIRECTION ( 'NONE',  ( 0.0000000000000000000, 1.000000000000000000, 0.0000000000000000000 ) ) ;
#116 = DIRECTION ( 'NONE',  ( 0.0000000000000000000, -1.000000000000000000, 0.0000000000000000000 ) ) ;
#117 = DIRECTION ( 'NONE',  ( 4.275831445896958607E-31, 1.000000000000000000, 1.224646799147353207E-16 ) ) ;
#118 = FACE_OUTER_BOUND ( 'NONE', #184, .T. ) ;
#119 = AXIS2_PLACEMENT_3D ( 'NONE', #101, #190, #207 ) ;
#120 = CARTESIAN_POINT ( 'NONE',  ( 1.229642691419511129E-15, -4.313005970814662778E-17, 0.3521836642056750954 ) ) ;
#121 = APPROVAL ( #45, 'UNSPECIFIED' ) ;
#122 = FACE_OUTER_BOUND ( 'NONE', #200, .T. ) ;
#123 = LOCAL_TIME ( 7, 54, 7.000000000000000000, #90 ) ;
#124 = ADVANCED_FACE ( 'NONE', ( #118 ), #18, .F. ) ;
#125 = CALENDAR_DATE ( 2021, 8, 10 ) ;
#126 = ADVANCED_FACE ( 'NONE', ( #36, #122 ), #223, .T. ) ;
#127 = PERSON_AND_ORGANIZATION ( #130, #168 ) ;
#128 = DIRECTION ( 'NONE',  ( 0.0000000000000000000, 0.0000000000000000000, 1.000000000000000000 ) ) ;
#129 = ADVANCED_FACE ( 'NONE', ( #73, #205 ), #2, .T. ) ;
#130 = PERSON ( 'UNSPECIFIED', 'UNSPECIFIED', 'UNSPECIFIED', ('UNSPECIFIED'), ('UNSPECIFIED'), ('UNSPECIFIED') ) ;
#131 = CC_DESIGN_APPROVAL ( #165, ( #143 ) ) ;
#132 = ORIENTED_EDGE ( 'NONE', *, *, #86, .T. ) ;
#133 = CARTESIAN_POINT ( 'NONE',  ( 1.229642691419511129E-15, -4.313005970814662778E-17, 0.3521836642056750954 ) ) ;
#134 = CC_DESIGN_DATE_AND_TIME_ASSIGNMENT ( #106, #63, ( #56 ) ) ;
#135 = DIRECTION ( 'NONE',  ( -3.491481338843133355E-15, 1.224646799147353207E-16, -1.000000000000000000 ) ) ;
#136 = PRODUCT_DEFINITION_SHAPE ( 'NONE', 'NONE',  #56 ) ;
#137 = VERTEX_POINT ( 'NONE', #19 ) ;
#138 = AXIS2_PLACEMENT_3D ( 'NONE', #71, #159, #37 ) ;
#139 = APPLICATION_PROTOCOL_DEFINITION ( 'international standard', 'config_control_design', 1994, #169 ) ;
#140 = DIRECTION ( 'NONE',  ( -3.491481338843133355E-15, 1.224646799147353207E-16, -1.000000000000000000 ) ) ;
#141 = CARTESIAN_POINT ( 'NONE',  ( 3.576145261858901583E-14, 0.7499999999999963363, 10.24248711305964044 ) ) ;
#142 = DIRECTION ( 'NONE',  ( 3.157262203913507134E-31, 1.000000000000000000, 8.886903053159888555E-17 ) ) ;
#143 = SECURITY_CLASSIFICATION ( '', '', #76 ) ;
#144 = AXIS2_PLACEMENT_3D ( 'NONE', #67, #95, #94 ) ;
#145 = MECHANICAL_CONTEXT ( 'NONE', #169, 'mechanical' ) ;
#146 = EDGE_CURVE ( 'NONE', #192, #192, #209, .T. ) ;
#147 = APPROVAL_ROLE ( '' ) ;
#148 = APPROVAL_STATUS ( 'not_yet_approved' ) ;
#149 = EDGE_LOOP ( 'NONE', ( #50 ) ) ;
#150 = CIRCLE ( 'NONE', #84, 0.6099999999999988765 ) ;
#151 = DIRECTION ( 'NONE',  ( 3.491481338843133355E-15, -1.224646799147353207E-16, 1.000000000000000000 ) ) ;
#152 = DIRECTION ( 'NONE',  ( -3.157262203913507134E-31, -1.000000000000000000, -8.886903053159888555E-17 ) ) ;
#153 = ADVANCED_FACE ( 'NONE', ( #21, #53 ), #46, .T. ) ;
#154 = CARTESIAN_POINT ( 'NONE',  ( 1.047444401652940007E-13, 4.124339402320052999E-33, 30.00000000000000000 ) ) ;
#155 = AXIS2_PLACEMENT_3D ( 'NONE', #66, #201, #115 ) ;
#156 = ORIENTED_EDGE ( 'NONE', *, *, #48, .F. ) ;
#157 = DIRECTION ( 'NONE',  ( -4.275831445896958607E-31, -1.000000000000000000, -1.224646799147353207E-16 ) ) ;
#158 =( LENGTH_UNIT ( ) NAMED_UNIT ( * ) SI_UNIT ( .MILLI., .METRE. ) );
#159 = DIRECTION ( 'NONE',  ( -3.491481338843133355E-15, 1.224646799147353207E-16, -1.000000000000000000 ) ) ;
#160 = PERSON_AND_ORGANIZATION ( #130, #168 ) ;
#161 = CALENDAR_DATE ( 2021, 8, 10 ) ;
#162 = EDGE_CURVE ( 'NONE', #88, #88, #150, .T. ) ;
#163 = LOCAL_TIME ( 7, 54, 7.000000000000000000, #93 ) ;
#164 = COORDINATED_UNIVERSAL_TIME_OFFSET ( 1, 0, .AHEAD. ) ;
#165 = APPROVAL ( #109, 'UNSPECIFIED' ) ;
#166 = EDGE_LOOP ( 'NONE', ( #83 ) ) ;
#167 = FACE_BOUND ( 'NONE', #85, .T. ) ;
#168 = ORGANIZATION ( 'UNSPECIFIED', 'UNSPECIFIED', '' ) ;
#169 = APPLICATION_CONTEXT ( 'configuration controlled 3d designs of mechanical parts and assemblies' ) ;
#170 = PRODUCT ( '59610', '59610', '', ( #145 ) ) ;
#171 = ORIENTED_EDGE ( 'NONE', *, *, #77, .F. ) ;
#172 = CLOSED_SHELL ( 'NONE', ( #7, #126, #219 ) ) ;
#173 = DIRECTION ( 'NONE',  ( -3.491481338843133355E-15, 1.224646799147353207E-16, -1.000000000000000000 ) ) ;
#174 = DIRECTION ( 'NONE',  ( 0.0000000000000000000, 1.000000000000000000, 0.0000000000000000000 ) ) ;
#175 = VERTEX_POINT ( 'NONE', #208 ) ;
#176 = CC_DESIGN_PERSON_AND_ORGANIZATION_ASSIGNMENT ( #59, #110, ( #56 ) ) ;
#177 = CARTESIAN_POINT ( 'NONE',  ( 3.491481338843133986E-14, -2.078680878889580519E-31, 10.00000000000000178 ) ) ;
#178 = PERSON_AND_ORGANIZATION ( #130, #168 ) ;
#179 = AXIS2_PLACEMENT_3D ( 'NONE', #177, #103, #157 ) ;
#180 = CALENDAR_DATE ( 2021, 8, 10 ) ;
#181 = COORDINATED_UNIVERSAL_TIME_OFFSET ( 1, 0, .AHEAD. ) ;
#182 = AXIS2_PLACEMENT_3D ( 'NONE', #154, #135, #117 ) ;
#183 = AXIS2_PLACEMENT_3D ( 'NONE', #133, #32, #152 ) ;
#184 = EDGE_LOOP ( 'NONE', ( #51 ) ) ;
#185 = EDGE_LOOP ( 'NONE', ( #171 ) ) ;
#186 = CC_DESIGN_SECURITY_CLASSIFICATION ( #143, ( #206 ) ) ;
#187 = DIRECTION ( 'NONE',  ( -3.491481338843133355E-15, 1.224646799147353207E-16, -1.000000000000000000 ) ) ;
#188 = ORIENTED_EDGE ( 'NONE', *, *, #162, .F. ) ;
#189 = CARTESIAN_POINT ( 'NONE',  ( 1.047444401652940007E-13, -3.673940397442059178E-15, 30.00000000000000000 ) ) ;
#190 = DIRECTION ( 'NONE',  ( -3.491481338843133355E-15, 1.224646799147353207E-16, -1.000000000000000000 ) ) ;
#191 = CARTESIAN_POINT ( 'NONE',  ( 0.0000000000000000000, 0.0000000000000000000, 0.0000000000000000000 ) ) ;
#192 = VERTEX_POINT ( 'NONE', #210 ) ;
#193 = APPLICATION_CONTEXT ( 'configuration controlled 3d designs of mechanical parts and assemblies' ) ;
#194 = VERTEX_POINT ( 'NONE', #141 ) ;
#195 = DATE_AND_TIME ( #44, #39 ) ;
#196 = DIRECTION ( 'NONE',  ( 1.000000000000000000, 0.0000000000000000000, 0.0000000000000000000 ) ) ;
#197 = APPROVAL_PERSON_ORGANIZATION ( #5, #165, #147 ) ;
#198 = CALENDAR_DATE ( 2021, 8, 10 ) ;
#199 = APPROVAL_DATE_TIME ( #108, #121 ) ;
#200 = EDGE_LOOP ( 'NONE', ( #97 ) ) ;
#201 = DIRECTION ( 'NONE',  ( -3.491481338843133355E-15, 1.224646799147353207E-16, -1.000000000000000000 ) ) ;
#202 = EDGE_LOOP ( 'NONE', ( #30 ) ) ;
#203 = CARTESIAN_POINT ( 'NONE',  ( 3.576145261858901583E-14, -1.254342905831650550E-15, 10.24248711305964044 ) ) ;
#204 = EDGE_LOOP ( 'NONE', ( #96 ) ) ;
#205 = FACE_OUTER_BOUND ( 'NONE', #81, .T. ) ;
#206 = PRODUCT_DEFINITION_FORMATION_WITH_SPECIFIED_SOURCE ( 'ANY', '', #170, .NOT_KNOWN. ) ;
#207 = DIRECTION ( 'NONE',  ( 4.275831445896958607E-31, 1.000000000000000000, 1.224646799147353207E-16 ) ) ;
#208 = CARTESIAN_POINT ( 'NONE',  ( 3.491481338843133986E-14, 0.6099999999999998757, 10.00000000000000178 ) ) ;
#209 = CIRCLE ( 'NONE', #138, 0.5500000000000000444 ) ;
#210 = CARTESIAN_POINT ( 'NONE',  ( 1.047444401652940007E-13, 0.5499999999999963807, 30.00000000000000000 ) ) ;
#211 = AXIS2_PLACEMENT_3D ( 'NONE', #114, #65, #31 ) ;
#212 = PERSON_AND_ORGANIZATION_ROLE ( 'classification_officer' ) ;
#213 = APPROVAL_ROLE ( '' ) ;
#214 = APPROVAL_ROLE ( '' ) ;
#215 = APPROVAL ( #148, 'UNSPECIFIED' ) ;
#216 = FACE_OUTER_BOUND ( 'NONE', #220, .T. ) ;
#217 = ORIENTED_EDGE ( 'NONE', *, *, #162, .T. ) ;
#218 = FACE_OUTER_BOUND ( 'NONE', #166, .T. ) ;
#219 = ADVANCED_FACE ( 'NONE', ( #34 ), #17, .T. ) ;
#220 = EDGE_LOOP ( 'NONE', ( #217 ) ) ;
#221 = CARTESIAN_POINT ( 'NONE',  ( 1.229642691419511326E-15, 0.6099999999999988765, 0.3521836642056751510 ) ) ;
#222 = CARTESIAN_POINT ( 'NONE',  ( 1.040461438975253740E-13, 0.7499999999999964473, 29.80000000000000071 ) ) ;
#223 = CYLINDRICAL_SURFACE ( 'NONE', #119, 0.6099999999999999867 ) ;
ENDSEC;
END-ISO-10303-21;
