ISO-10303-21;
HEADER;
FILE_DESCRIPTION (( 'STEP AP203' ),
    '1' );
FILE_NAME ('5948.step',
    '2021-12-06T12:59:48',
    ( '' ),
    ( '' ),
    'SwSTEP 2.0',
    'SolidWorks 2019',
    '' );
FILE_SCHEMA (( 'CONFIG_CONTROL_DESIGN' ));
ENDSEC;

DATA;
#1 = UNCERTAINTY_MEASURE_WITH_UNIT (LENGTH_MEASURE( 1.000000000000000082E-05 ), #49, 'distance_accuracy_value', 'NONE');
#2 = EDGE_LOOP ( 'NONE', ( #27 ) ) ;
#3 = APPROVAL ( #9, 'UNSPECIFIED' ) ;
#4 = DIRECTION ( 'NONE',  ( -3.491481338843133355E-15, 2.161141410260034763E-17, -1.000000000000000000 ) ) ;
#5 = DIRECTION ( 'NONE',  ( -3.491481338843133355E-15, 2.161141410260034763E-17, -1.000000000000000000 ) ) ;
#6 = ORGANIZATION ( 'UNSPECIFIED', 'UNSPECIFIED', '' ) ;
#7 = COORDINATED_UNIVERSAL_TIME_OFFSET ( 1, 0, .AHEAD. ) ;
#8 = APPLICATION_PROTOCOL_DEFINITION ( 'international standard', 'config_control_design', 1994, #154 ) ;
#9 = APPROVAL_STATUS ( 'not_yet_approved' ) ;
#10 = COORDINATED_UNIVERSAL_TIME_OFFSET ( 1, 0, .AHEAD. ) ;
#11 = AXIS2_PLACEMENT_3D ( 'NONE', #75, #23, #38 ) ;
#12 = CARTESIAN_POINT ( 'NONE',  ( 0.0000000000000000000, 0.0000000000000000000, 0.0000000000000000000 ) ) ;
#13 = DIRECTION ( 'NONE',  ( -3.491481338843133355E-15, 2.161141410260034763E-17, -1.000000000000000000 ) ) ;
#14 = VERTEX_POINT ( 'NONE', #62 ) ;
#15 = CYLINDRICAL_SURFACE ( 'NONE', #84, 15.00000000000000000 ) ;
#16 = CC_DESIGN_DATE_AND_TIME_ASSIGNMENT ( #151, #119, ( #129 ) ) ;
#17 = VERTEX_POINT ( 'NONE', #26 ) ;
#18 = PERSON_AND_ORGANIZATION ( #110, #6 ) ;
#19 = PERSON_AND_ORGANIZATION ( #110, #6 ) ;
#20 = CALENDAR_DATE ( 2021, 6, 12 ) ;
#21 = CIRCLE ( 'NONE', #124, 4.000000000000000000 ) ;
#22 = APPROVAL ( #149, 'UNSPECIFIED' ) ;
#23 = DIRECTION ( 'NONE',  ( -3.491481338843133355E-15, 2.161141410260034763E-17, -1.000000000000000000 ) ) ;
#24 = DESIGN_CONTEXT ( 'detailed design', #73, 'design' ) ;
#25 = DIRECTION ( 'NONE',  ( 7.545584904524042990E-32, 1.000000000000000000, 2.161141410260034763E-17 ) ) ;
#26 = CARTESIAN_POINT ( 'NONE',  ( 0.0000000000000000000, 15.00000000000000000, 0.0000000000000000000 ) ) ;
#27 = ORIENTED_EDGE ( 'NONE', *, *, #139, .F. ) ;
#28 = CARTESIAN_POINT ( 'NONE',  ( 0.0000000000000000000, 4.000000000000000000, 0.0000000000000000000 ) ) ;
#29 = PERSON_AND_ORGANIZATION ( #110, #6 ) ;
#30 = CARTESIAN_POINT ( 'NONE',  ( 0.0000000000000000000, 0.0000000000000000000, 0.0000000000000000000 ) ) ;
#31 = PERSON_AND_ORGANIZATION_ROLE ( 'design_supplier' ) ;
#32 = CC_DESIGN_DATE_AND_TIME_ASSIGNMENT ( #40, #53, ( #44 ) ) ;
#33 = AXIS2_PLACEMENT_3D ( 'NONE', #30, #153, #67 ) ;
#34 = EDGE_LOOP ( 'NONE', ( #155 ) ) ;
#35 = DIRECTION ( 'NONE',  ( 0.0000000000000000000, 1.000000000000000000, 0.0000000000000000000 ) ) ;
#36 = FACE_OUTER_BOUND ( 'NONE', #80, .T. ) ;
#37 = FACE_OUTER_BOUND ( 'NONE', #169, .T. ) ;
#38 = DIRECTION ( 'NONE',  ( 7.545584904524041895E-32, 1.000000000000000000, 2.161141410260034455E-17 ) ) ;
#39 = APPROVAL_DATE_TIME ( #162, #22 ) ;
#40 = DATE_AND_TIME ( #42, #156 ) ;
#41 = CC_DESIGN_APPROVAL ( #106, ( #44 ) ) ;
#42 = CALENDAR_DATE ( 2021, 6, 12 ) ;
#43 = SHAPE_DEFINITION_REPRESENTATION ( #97, #54 ) ;
#44 = PRODUCT_DEFINITION ( 'UNKNOWN', '', #138, #24 ) ;
#45 = PERSON_AND_ORGANIZATION_ROLE ( 'design_owner' ) ;
#46 = AXIS2_PLACEMENT_3D ( 'NONE', #88, #127, #161 ) ;
#47 = FACE_OUTER_BOUND ( 'NONE', #101, .T. ) ;
#48 = ORIENTED_EDGE ( 'NONE', *, *, #123, .F. ) ;
#49 =( LENGTH_UNIT ( ) NAMED_UNIT ( * ) SI_UNIT ( .MILLI., .METRE. ) );
#50 = CARTESIAN_POINT ( 'NONE',  ( 5.935518276033325126E-15, -3.673940397442058266E-17, 1.699999999999999512 ) ) ;
#51 = FACE_OUTER_BOUND ( 'NONE', #100, .T. ) ;
#52 = CALENDAR_DATE ( 2021, 6, 12 ) ;
#53 = DATE_TIME_ROLE ( 'creation_date' ) ;
#54 = ADVANCED_BREP_SHAPE_REPRESENTATION ( '5948', ( #160, #33 ), #74 ) ;
#55 = APPROVAL_ROLE ( '' ) ;
#56 = LOCAL_TIME ( 13, 59, 48.00000000000000000, #135 ) ;
#57 = CALENDAR_DATE ( 2021, 6, 12 ) ;
#58 = CC_DESIGN_PERSON_AND_ORGANIZATION_ASSIGNMENT ( #68, #31, ( #138 ) ) ;
#59 = PRODUCT ( '5948', '5948', '', ( #136 ) ) ;
#60 = FACE_OUTER_BOUND ( 'NONE', #2, .T. ) ;
#61 = DIRECTION ( 'NONE',  ( -3.491481338843133355E-15, 2.161141410260034763E-17, -1.000000000000000000 ) ) ;
#62 = CARTESIAN_POINT ( 'NONE',  ( 5.935518276033325915E-15, 4.000000000000000000, 1.699999999999999956 ) ) ;
#63 = CC_DESIGN_APPROVAL ( #22, ( #138 ) ) ;
#64 = EDGE_CURVE ( 'NONE', #112, #112, #140, .T. ) ;
#65 = DIRECTION ( 'NONE',  ( -7.545584904524042990E-32, -1.000000000000000000, -2.161141410260034763E-17 ) ) ;
#66 = FACE_BOUND ( 'NONE', #114, .T. ) ;
#67 = DIRECTION ( 'NONE',  ( 1.000000000000000000, 0.0000000000000000000, 0.0000000000000000000 ) ) ;
#68 = PERSON_AND_ORGANIZATION ( #110, #6 ) ;
#69 = COORDINATED_UNIVERSAL_TIME_OFFSET ( 1, 0, .AHEAD. ) ;
#70 = PERSON_AND_ORGANIZATION_ROLE ( 'classification_officer' ) ;
#71 = CC_DESIGN_APPROVAL ( #3, ( #129 ) ) ;
#72 = ADVANCED_FACE ( 'NONE', ( #51, #47 ), #15, .T. ) ;
#73 = APPLICATION_CONTEXT ( 'configuration controlled 3d designs of mechanical parts and assemblies' ) ;
#74 =( GEOMETRIC_REPRESENTATION_CONTEXT ( 3 ) GLOBAL_UNCERTAINTY_ASSIGNED_CONTEXT ( ( #1 ) ) GLOBAL_UNIT_ASSIGNED_CONTEXT ( ( #49, #82, #148 ) ) REPRESENTATION_CONTEXT ( 'NONE', 'WORKASPACE' ) );
#75 = CARTESIAN_POINT ( 'NONE',  ( -1.131837735678606350E-30, 7.005798292711096635E-33, -3.241712115390051868E-16 ) ) ;
#76 = VERTEX_POINT ( 'NONE', #128 ) ;
#77 = CC_DESIGN_PERSON_AND_ORGANIZATION_ASSIGNMENT ( #29, #70, ( #129 ) ) ;
#78 = ORIENTED_EDGE ( 'NONE', *, *, #139, .T. ) ;
#79 = CIRCLE ( 'NONE', #11, 15.00000000000000000 ) ;
#80 = EDGE_LOOP ( 'NONE', ( #126 ) ) ;
#81 = APPROVAL_DATE_TIME ( #92, #106 ) ;
#82 =( NAMED_UNIT ( * ) PLANE_ANGLE_UNIT ( ) SI_UNIT ( $, .RADIAN. ) );
#83 = COORDINATED_UNIVERSAL_TIME_OFFSET ( 1, 0, .AHEAD. ) ;
#84 = AXIS2_PLACEMENT_3D ( 'NONE', #12, #5, #146 ) ;
#85 = LOCAL_TIME ( 13, 59, 48.00000000000000000, #83 ) ;
#86 = CLOSED_SHELL ( 'NONE', ( #118, #72, #95, #166 ) ) ;
#87 = PLANE ( 'NONE',  #167 ) ;
#88 = CARTESIAN_POINT ( 'NONE',  ( -3.018233961809617196E-31, 1.868212878056292869E-33, -8.644565641040139053E-17 ) ) ;
#89 = ORIENTED_EDGE ( 'NONE', *, *, #152, .F. ) ;
#90 = PLANE ( 'NONE',  #125 ) ;
#91 = EDGE_LOOP ( 'NONE', ( #111 ) ) ;
#92 = DATE_AND_TIME ( #20, #85 ) ;
#93 = APPROVAL_ROLE ( '' ) ;
#94 = CALENDAR_DATE ( 2021, 6, 12 ) ;
#95 = ADVANCED_FACE ( 'NONE', ( #66, #60 ), #87, .T. ) ;
#96 = APPROVAL_PERSON_ORGANIZATION ( #134, #106, #93 ) ;
#97 = PRODUCT_DEFINITION_SHAPE ( 'NONE', 'NONE',  #44 ) ;
#98 = DIRECTION ( 'NONE',  ( 5.135813185032629306E-32, 1.000000000000000000, 1.445602896647339348E-17 ) ) ;
#99 = APPROVAL_PERSON_ORGANIZATION ( #18, #22, #164 ) ;
#100 = EDGE_LOOP ( 'NONE', ( #78 ) ) ;
#101 = EDGE_LOOP ( 'NONE', ( #48 ) ) ;
#102 = CYLINDRICAL_SURFACE ( 'NONE', #109, 4.000000000000000000 ) ;
#103 = FACE_OUTER_BOUND ( 'NONE', #34, .T. ) ;
#104 = CIRCLE ( 'NONE', #150, 15.00000000000000000 ) ;
#105 = PERSON_AND_ORGANIZATION_ROLE ( 'creator' ) ;
#106 = APPROVAL ( #117, 'UNSPECIFIED' ) ;
#107 = DATE_AND_TIME ( #57, #145 ) ;
#108 = CC_DESIGN_PERSON_AND_ORGANIZATION_ASSIGNMENT ( #122, #45, ( #59 ) ) ;
#109 = AXIS2_PLACEMENT_3D ( 'NONE', #159, #61, #143 ) ;
#110 = PERSON ( 'UNSPECIFIED', 'UNSPECIFIED', 'UNSPECIFIED', ('UNSPECIFIED'), ('UNSPECIFIED'), ('UNSPECIFIED') ) ;
#111 = ORIENTED_EDGE ( 'NONE', *, *, #64, .F. ) ;
#112 = VERTEX_POINT ( 'NONE', #28 ) ;
#113 = FACE_BOUND ( 'NONE', #91, .T. ) ;
#114 = EDGE_LOOP ( 'NONE', ( #157 ) ) ;
#115 = PERSON_AND_ORGANIZATION_ROLE ( 'creator' ) ;
#116 = LOCAL_TIME ( 13, 59, 48.00000000000000000, #7 ) ;
#117 = APPROVAL_STATUS ( 'not_yet_approved' ) ;
#118 = ADVANCED_FACE ( 'NONE', ( #103, #113 ), #90, .T. ) ;
#119 = DATE_TIME_ROLE ( 'classification_date' ) ;
#120 = PERSON_AND_ORGANIZATION ( #110, #6 ) ;
#121 = APPROVAL_PERSON_ORGANIZATION ( #120, #3, #55 ) ;
#122 = PERSON_AND_ORGANIZATION ( #110, #6 ) ;
#123 = EDGE_CURVE ( 'NONE', #17, #17, #79, .T. ) ;
#124 = AXIS2_PLACEMENT_3D ( 'NONE', #141, #13, #35 ) ;
#125 = AXIS2_PLACEMENT_3D ( 'NONE', #142, #4, #25 ) ;
#126 = ORIENTED_EDGE ( 'NONE', *, *, #64, .T. ) ;
#127 = DIRECTION ( 'NONE',  ( -3.491481338843133355E-15, 2.161141410260034763E-17, -1.000000000000000000 ) ) ;
#128 = CARTESIAN_POINT ( 'NONE',  ( 5.935518276033325915E-15, 15.00000000000000000, 1.699999999999999734 ) ) ;
#129 = SECURITY_CLASSIFICATION ( '', '', #163 ) ;
#130 = CARTESIAN_POINT ( 'NONE',  ( 5.935518276033325126E-15, 4.000000000000000000, 1.699999999999999512 ) ) ;
#131 = CC_DESIGN_PERSON_AND_ORGANIZATION_ASSIGNMENT ( #19, #105, ( #138 ) ) ;
#132 = DIRECTION ( 'NONE',  ( -3.491481338843133355E-15, 2.161141410260034763E-17, -1.000000000000000000 ) ) ;
#133 = APPLICATION_PROTOCOL_DEFINITION ( 'international standard', 'config_control_design', 1994, #73 ) ;
#134 = PERSON_AND_ORGANIZATION ( #110, #6 ) ;
#135 = COORDINATED_UNIVERSAL_TIME_OFFSET ( 1, 0, .AHEAD. ) ;
#136 = MECHANICAL_CONTEXT ( 'NONE', #154, 'mechanical' ) ;
#137 = CC_DESIGN_PERSON_AND_ORGANIZATION_ASSIGNMENT ( #147, #115, ( #44 ) ) ;
#138 = PRODUCT_DEFINITION_FORMATION_WITH_SPECIFIED_SOURCE ( 'ANY', '', #59, .NOT_KNOWN. ) ;
#139 = EDGE_CURVE ( 'NONE', #76, #76, #104, .T. ) ;
#140 = CIRCLE ( 'NONE', #46, 4.000000000000000000 ) ;
#141 = CARTESIAN_POINT ( 'NONE',  ( 5.935518276033325915E-15, -3.673940397442058882E-17, 1.699999999999999956 ) ) ;
#142 = CARTESIAN_POINT ( 'NONE',  ( -4.150071697488223809E-31, 4.000000000000000000, -1.188627775643018920E-16 ) ) ;
#143 = DIRECTION ( 'NONE',  ( 7.545584904524042990E-32, 1.000000000000000000, 2.161141410260034763E-17 ) ) ;
#144 = PRODUCT_RELATED_PRODUCT_CATEGORY ( 'detail', '', ( #59 ) ) ;
#145 = LOCAL_TIME ( 13, 59, 48.00000000000000000, #10 ) ;
#146 = DIRECTION ( 'NONE',  ( 7.545584904524041895E-32, 1.000000000000000000, 2.161141410260034455E-17 ) ) ;
#147 = PERSON_AND_ORGANIZATION ( #110, #6 ) ;
#148 =( NAMED_UNIT ( * ) SI_UNIT ( $, .STERADIAN. ) SOLID_ANGLE_UNIT ( ) );
#149 = APPROVAL_STATUS ( 'not_yet_approved' ) ;
#150 = AXIS2_PLACEMENT_3D ( 'NONE', #50, #132, #98 ) ;
#151 = DATE_AND_TIME ( #94, #56 ) ;
#152 = EDGE_CURVE ( 'NONE', #14, #14, #21, .T. ) ;
#153 = DIRECTION ( 'NONE',  ( 0.0000000000000000000, 0.0000000000000000000, 1.000000000000000000 ) ) ;
#154 = APPLICATION_CONTEXT ( 'configuration controlled 3d designs of mechanical parts and assemblies' ) ;
#155 = ORIENTED_EDGE ( 'NONE', *, *, #123, .T. ) ;
#156 = LOCAL_TIME ( 13, 59, 48.00000000000000000, #69 ) ;
#157 = ORIENTED_EDGE ( 'NONE', *, *, #152, .T. ) ;
#158 = DIRECTION ( 'NONE',  ( 3.491481338843133355E-15, -2.161141410260034763E-17, 1.000000000000000000 ) ) ;
#159 = CARTESIAN_POINT ( 'NONE',  ( 0.0000000000000000000, 0.0000000000000000000, 0.0000000000000000000 ) ) ;
#160 = MANIFOLD_SOLID_BREP ( 'Corps-Déplacer/Copier1', #86 ) ;
#161 = DIRECTION ( 'NONE',  ( 7.545584904524042990E-32, 1.000000000000000000, 2.161141410260034763E-17 ) ) ;
#162 = DATE_AND_TIME ( #52, #116 ) ;
#163 = SECURITY_CLASSIFICATION_LEVEL ( 'unclassified' ) ;
#164 = APPROVAL_ROLE ( '' ) ;
#165 = APPROVAL_DATE_TIME ( #107, #3 ) ;
#166 = ADVANCED_FACE ( 'NONE', ( #36, #37 ), #102, .F. ) ;
#167 = AXIS2_PLACEMENT_3D ( 'NONE', #130, #158, #65 ) ;
#168 = CC_DESIGN_SECURITY_CLASSIFICATION ( #129, ( #138 ) ) ;
#169 = EDGE_LOOP ( 'NONE', ( #89 ) ) ;
ENDSEC;
END-ISO-10303-21;
