ISO-10303-21;
HEADER;
FILE_DESCRIPTION (( 'STEP AP203' ),
    '1' );
FILE_NAME ('59472.step',
    '2021-10-13T11:36:28',
    ( '' ),
    ( '' ),
    'SwSTEP 2.0',
    'SolidWorks 2019',
    '' );
FILE_SCHEMA (( 'CONFIG_CONTROL_DESIGN' ));
ENDSEC;

DATA;
#1 = CARTESIAN_POINT ( 'NONE',  ( 6.862294516508068256E-15, -5.400000000000009237, 1.965439265037520755 ) ) ;
#2 = ADVANCED_FACE ( 'NONE', ( #32, #179 ), #203, .T. ) ;
#3 = VERTEX_POINT ( 'NONE', #196 ) ;
#4 = CARTESIAN_POINT ( 'NONE',  ( 1.396592535537253342E-13, -1.730869917914697153E-14, 40.00000000000000000 ) ) ;
#5 = PRODUCT ( '59472', '59472', '', ( #227 ) ) ;
#6 = CYLINDRICAL_SURFACE ( 'NONE', #187, 5.400000000000009237 ) ;
#7 = LOCAL_TIME ( 13, 36, 28.00000000000000000, #158 ) ;
#8 = CC_DESIGN_PERSON_AND_ORGANIZATION_ASSIGNMENT ( #73, #164, ( #5 ) ) ;
#9 = DIRECTION ( 'NONE',  ( 0.0000000000000000000, 1.000000000000000000, 0.0000000000000000000 ) ) ;
#10 = DIRECTION ( 'NONE',  ( 3.491481338843133355E-15, -1.224646799147353207E-16, 1.000000000000000000 ) ) ;
#11 = DIRECTION ( 'NONE',  ( -3.491481338843133355E-15, 1.224646799147353207E-16, -1.000000000000000000 ) ) ;
#12 = PERSON ( 'UNSPECIFIED', 'UNSPECIFIED', 'UNSPECIFIED', ('UNSPECIFIED'), ('UNSPECIFIED'), ('UNSPECIFIED') ) ;
#13 = PRODUCT_RELATED_PRODUCT_CATEGORY ( 'detail', '', ( #5 ) ) ;
#14 = COORDINATED_UNIVERSAL_TIME_OFFSET ( 1, 0, .AHEAD. ) ;
#15 = CARTESIAN_POINT ( 'NONE',  ( 3.561310965619995770E-13, -1.249139735130300089E-14, 102.0000000000000000 ) ) ;
#16 = DATE_AND_TIME ( #78, #160 ) ;
#17 = EDGE_CURVE ( 'NONE', #3, #3, #111, .T. ) ;
#18 = COORDINATED_UNIVERSAL_TIME_OFFSET ( 1, 0, .AHEAD. ) ;
#19 = DIRECTION ( 'NONE',  ( 0.0000000000000000000, -1.000000000000000000, 0.0000000000000000000 ) ) ;
#20 = EDGE_LOOP ( 'NONE', ( #113 ) ) ;
#21 = DESIGN_CONTEXT ( 'detailed design', #215, 'design' ) ;
#22 = DIRECTION ( 'NONE',  ( 0.0000000000000000000, 1.000000000000000000, 0.0000000000000000000 ) ) ;
#23 = ORIENTED_EDGE ( 'NONE', *, *, #191, .T. ) ;
#24 = FACE_OUTER_BOUND ( 'NONE', #20, .T. ) ;
#25 = DIRECTION ( 'NONE',  ( 1.510825004591027679E-30, 1.000000000000000000, 4.327174794786742389E-16 ) ) ;
#26 = CARTESIAN_POINT ( 'NONE',  ( 0.0000000000000000000, 0.0000000000000000000, 0.0000000000000000000 ) ) ;
#27 = AXIS2_PLACEMENT_3D ( 'NONE', #4, #214, #129 ) ;
#28 = CALENDAR_DATE ( 2021, 13, 10 ) ;
#29 = DATE_AND_TIME ( #238, #7 ) ;
#30 = CARTESIAN_POINT ( 'NONE',  ( 1.896125044073502175E-13, -2.349966590741498116E-14, 54.30717967697240312 ) ) ;
#31 = DIRECTION ( 'NONE',  ( 1.000000000000000000, 0.0000000000000000000, 0.0000000000000000000 ) ) ;
#32 = FACE_OUTER_BOUND ( 'NONE', #71, .T. ) ;
#33 = LOCAL_TIME ( 13, 36, 28.00000000000000000, #14 ) ;
#34 = VERTEX_POINT ( 'NONE', #186 ) ;
#35 = AXIS2_PLACEMENT_3D ( 'NONE', #200, #10, #159 ) ;
#36 = DATE_AND_TIME ( #77, #182 ) ;
#37 = ADVANCED_FACE ( 'NONE', ( #257 ), #121, .T. ) ;
#38 = AXIS2_PLACEMENT_3D ( 'NONE', #15, #202, #255 ) ;
#39 = DIRECTION ( 'NONE',  ( -3.491481338843133355E-15, 1.224646799147353207E-16, -1.000000000000000000 ) ) ;
#40 = CYLINDRICAL_SURFACE ( 'NONE', #189, 5.999999999999998224 ) ;
#41 = EDGE_LOOP ( 'NONE', ( #223 ) ) ;
#42 = ORGANIZATION ( 'UNSPECIFIED', 'UNSPECIFIED', '' ) ;
#43 = DIRECTION ( 'NONE',  ( 1.510825004591027855E-30, 1.000000000000000000, 4.327174794786742882E-16 ) ) ;
#44 = FACE_OUTER_BOUND ( 'NONE', #218, .T. ) ;
#45 = CARTESIAN_POINT ( 'NONE',  ( 0.0000000000000000000, 0.0000000000000000000, 0.0000000000000000000 ) ) ;
#46 = ORIENTED_EDGE ( 'NONE', *, *, #144, .T. ) ;
#47 = APPROVAL_DATE_TIME ( #29, #249 ) ;
#48 = EDGE_LOOP ( 'NONE', ( #68 ) ) ;
#49 = CARTESIAN_POINT ( 'NONE',  ( 3.561310965619995770E-13, 4.999999999999989342, 102.0000000000000000 ) ) ;
#50 = ORIENTED_EDGE ( 'NONE', *, *, #79, .T. ) ;
#51 = CARTESIAN_POINT ( 'NONE',  ( 0.0000000000000000000, 0.0000000000000000000, 0.0000000000000000000 ) ) ;
#52 = CC_DESIGN_APPROVAL ( #59, ( #120 ) ) ;
#53 = ADVANCED_FACE ( 'NONE', ( #175 ), #199, .F. ) ;
#54 =( NAMED_UNIT ( * ) PLANE_ANGLE_UNIT ( ) SI_UNIT ( $, .RADIAN. ) );
#55 = PERSON_AND_ORGANIZATION_ROLE ( 'classification_officer' ) ;
#56 = AXIS2_PLACEMENT_3D ( 'NONE', #247, #62, #194 ) ;
#57 = CC_DESIGN_PERSON_AND_ORGANIZATION_ASSIGNMENT ( #222, #116, ( #120 ) ) ;
#58 = CONICAL_SURFACE ( 'NONE', #146, 6.500000000000019540, 0.5235987755982998149 ) ;
#59 = APPROVAL ( #119, 'UNSPECIFIED' ) ;
#60 = DIRECTION ( 'NONE',  ( -3.491481338843133355E-15, 4.327174794786742882E-16, -1.000000000000000000 ) ) ;
#61 = CARTESIAN_POINT ( 'NONE',  ( 1.896125044073502175E-13, -6.000000000000022204, 54.30717967697240312 ) ) ;
#62 = DIRECTION ( 'NONE',  ( 3.491481338843133355E-15, -1.224646799147353207E-16, 1.000000000000000000 ) ) ;
#63 = CC_DESIGN_PERSON_AND_ORGANIZATION_ASSIGNMENT ( #124, #55, ( #88 ) ) ;
#64 = FACE_OUTER_BOUND ( 'NONE', #148, .T. ) ;
#65 = DIRECTION ( 'NONE',  ( 4.275831445896958607E-31, 1.000000000000000000, 1.224646799147353207E-16 ) ) ;
#66 = EDGE_LOOP ( 'NONE', ( #221 ) ) ;
#67 = APPROVAL_ROLE ( '' ) ;
#68 = ORIENTED_EDGE ( 'NONE', *, *, #102, .T. ) ;
#69 = CALENDAR_DATE ( 2021, 13, 10 ) ;
#70 = AXIS2_PLACEMENT_3D ( 'NONE', #232, #112, #9 ) ;
#71 = EDGE_LOOP ( 'NONE', ( #224 ) ) ;
#72 = ORIENTED_EDGE ( 'NONE', *, *, #191, .F. ) ;
#73 = PERSON_AND_ORGANIZATION ( #12, #42 ) ;
#74 = CARTESIAN_POINT ( 'NONE',  ( 1.396592535537253342E-13, -5.400000000000026112, 40.00000000000000000 ) ) ;
#75 = AXIS2_PLACEMENT_3D ( 'NONE', #91, #110, #22 ) ;
#76 = APPROVAL_ROLE ( '' ) ;
#77 = CALENDAR_DATE ( 2021, 13, 10 ) ;
#78 = CALENDAR_DATE ( 2021, 13, 10 ) ;
#79 = EDGE_CURVE ( 'NONE', #176, #176, #180, .T. ) ;
#80 = CIRCLE ( 'NONE', #75, 5.400000000000016342 ) ;
#81 = AXIS2_PLACEMENT_3D ( 'NONE', #136, #184, #138 ) ;
#82 = APPROVAL_PERSON_ORGANIZATION ( #209, #170, #76 ) ;
#83 = CARTESIAN_POINT ( 'NONE',  ( 1.396592535537253342E-13, -1.730869917914697153E-14, 40.00000000000000000 ) ) ;
#84 = CARTESIAN_POINT ( 'NONE',  ( 0.0000000000000000000, 0.0000000000000000000, 0.0000000000000000000 ) ) ;
#85 = ORIENTED_EDGE ( 'NONE', *, *, #144, .F. ) ;
#86 = DIRECTION ( 'NONE',  ( -3.491481338843133355E-15, 1.224646799147353207E-16, -1.000000000000000000 ) ) ;
#87 = EDGE_CURVE ( 'NONE', #147, #147, #261, .T. ) ;
#88 = SECURITY_CLASSIFICATION ( '', '', #263 ) ;
#89 = FACE_OUTER_BOUND ( 'NONE', #157, .T. ) ;
#90 = DIRECTION ( 'NONE',  ( -5.135813185032638283E-31, -1.000000000000000000, -1.445602896647341875E-16 ) ) ;
#91 = CARTESIAN_POINT ( 'NONE',  ( 1.850485109586860552E-13, -2.293402641236973727E-14, 53.00000000000000000 ) ) ;
#92 = EDGE_LOOP ( 'NONE', ( #139 ) ) ;
#93 = EDGE_LOOP ( 'NONE', ( #211 ) ) ;
#94 = DIRECTION ( 'NONE',  ( 0.0000000000000000000, 0.0000000000000000000, 1.000000000000000000 ) ) ;
#95 = AXIS2_PLACEMENT_3D ( 'NONE', #84, #217, #128 ) ;
#96 = PERSON_AND_ORGANIZATION_ROLE ( 'creator' ) ;
#97 = MANIFOLD_SOLID_BREP ( 'Corps-Déplacer/Copier1[2]', #173 ) ;
#98 = APPLICATION_CONTEXT ( 'configuration controlled 3d designs of mechanical parts and assemblies' ) ;
#99 =( NAMED_UNIT ( * ) SI_UNIT ( $, .STERADIAN. ) SOLID_ANGLE_UNIT ( ) );
#100 = AXIS2_PLACEMENT_3D ( 'NONE', #51, #94, #31 ) ;
#101 = AXIS2_PLACEMENT_3D ( 'NONE', #115, #11, #241 ) ;
#102 = EDGE_CURVE ( 'NONE', #149, #149, #80, .T. ) ;
#103 = DIRECTION ( 'NONE',  ( -3.491481338843133355E-15, 1.224646799147353207E-16, -1.000000000000000000 ) ) ;
#104 = ORIENTED_EDGE ( 'NONE', *, *, #79, .F. ) ;
#105 = CIRCLE ( 'NONE', #70, 5.000000000000001776 ) ;
#106 = FACE_OUTER_BOUND ( 'NONE', #48, .T. ) ;
#107 = EDGE_LOOP ( 'NONE', ( #23 ) ) ;
#108 = ADVANCED_FACE ( 'NONE', ( #154, #198 ), #213, .F. ) ;
#109 = CYLINDRICAL_SURFACE ( 'NONE', #95, 5.400000000000009237 ) ;
#110 = DIRECTION ( 'NONE',  ( -3.491481338843133355E-15, 4.327174794786742882E-16, -1.000000000000000000 ) ) ;
#111 = CIRCLE ( 'NONE', #81, 6.000000000000001776 ) ;
#112 = DIRECTION ( 'NONE',  ( -3.491481338843133355E-15, 1.224646799147353207E-16, -1.000000000000000000 ) ) ;
#113 = ORIENTED_EDGE ( 'NONE', *, *, #87, .T. ) ;
#114 = DATE_AND_TIME ( #28, #262 ) ;
#115 = CARTESIAN_POINT ( 'NONE',  ( 6.862294516508070623E-15, -2.406968904846727523E-16, 1.965439265037521643 ) ) ;
#116 = PERSON_AND_ORGANIZATION_ROLE ( 'design_supplier' ) ;
#117 = DIRECTION ( 'NONE',  ( 3.491481338843133355E-15, -4.327174794786742882E-16, 1.000000000000000000 ) ) ;
#118 = CC_DESIGN_DATE_AND_TIME_ASSIGNMENT ( #114, #178, ( #167 ) ) ;
#119 = APPROVAL_STATUS ( 'not_yet_approved' ) ;
#120 = PRODUCT_DEFINITION_FORMATION_WITH_SPECIFIED_SOURCE ( 'ANY', '', #5, .NOT_KNOWN. ) ;
#121 = CONICAL_SURFACE ( 'NONE', #141, 5.999999999999989342, 1.221730476396026388 ) ;
#122 = DIRECTION ( 'NONE',  ( 3.491481338843133355E-15, -1.224646799147353207E-16, 1.000000000000000000 ) ) ;
#123 = VERTEX_POINT ( 'NONE', #74 ) ;
#124 = PERSON_AND_ORGANIZATION ( #12, #42 ) ;
#125 = CC_DESIGN_PERSON_AND_ORGANIZATION_ASSIGNMENT ( #240, #96, ( #120 ) ) ;
#126 = APPROVAL_DATE_TIME ( #36, #170 ) ;
#127 = ADVANCED_FACE ( 'NONE', ( #174, #44 ), #58, .T. ) ;
#128 = DIRECTION ( 'NONE',  ( 1.510825004591027679E-30, 1.000000000000000000, 4.327174794786742389E-16 ) ) ;
#129 = DIRECTION ( 'NONE',  ( 0.0000000000000000000, -1.000000000000000000, 0.0000000000000000000 ) ) ;
#130 = CC_DESIGN_DATE_AND_TIME_ASSIGNMENT ( #16, #230, ( #88 ) ) ;
#131 =( GEOMETRIC_REPRESENTATION_CONTEXT ( 3 ) GLOBAL_UNCERTAINTY_ASSIGNED_CONTEXT ( ( #133 ) ) GLOBAL_UNIT_ASSIGNED_CONTEXT ( ( #219, #54, #99 ) ) REPRESENTATION_CONTEXT ( 'NONE', 'WORKASPACE' ) );
#132 = DIRECTION ( 'NONE',  ( -3.491481338843133355E-15, 4.327174794786742882E-16, -1.000000000000000000 ) ) ;
#133 = UNCERTAINTY_MEASURE_WITH_UNIT (LENGTH_MEASURE( 1.000000000000000082E-05 ), #219, 'distance_accuracy_value', 'NONE');
#134 = CARTESIAN_POINT ( 'NONE',  ( 1.850485109586860300E-13, -2.255140518769849223E-14, 52.99999999999999289 ) ) ;
#135 = DIRECTION ( 'NONE',  ( 0.0000000000000000000, -1.000000000000000000, 0.0000000000000000000 ) ) ;
#136 = CARTESIAN_POINT ( 'NONE',  ( 3.526396152231564058E-13, -1.236893267138826416E-14, 100.9999999999999716 ) ) ;
#137 = COORDINATED_UNIVERSAL_TIME_OFFSET ( 1, 0, .AHEAD. ) ;
#138 = DIRECTION ( 'NONE',  ( 0.0000000000000000000, 1.000000000000000000, 0.0000000000000000000 ) ) ;
#139 = ORIENTED_EDGE ( 'NONE', *, *, #181, .T. ) ;
#140 = APPROVAL_STATUS ( 'not_yet_approved' ) ;
#141 = AXIS2_PLACEMENT_3D ( 'NONE', #177, #122, #90 ) ;
#142 = ADVANCED_FACE ( 'NONE', ( #24, #212 ), #40, .T. ) ;
#143 = COORDINATED_UNIVERSAL_TIME_OFFSET ( 1, 0, .AHEAD. ) ;
#144 = EDGE_CURVE ( 'NONE', #163, #163, #245, .T. ) ;
#145 = PRODUCT_DEFINITION_SHAPE ( 'NONE', 'NONE',  #167 ) ;
#146 = AXIS2_PLACEMENT_3D ( 'NONE', #197, #172, #248 ) ;
#147 = VERTEX_POINT ( 'NONE', #61 ) ;
#148 = EDGE_LOOP ( 'NONE', ( #104 ) ) ;
#149 = VERTEX_POINT ( 'NONE', #151 ) ;
#150 = EDGE_LOOP ( 'NONE', ( #50 ) ) ;
#151 = CARTESIAN_POINT ( 'NONE',  ( 1.850485109586860552E-13, 5.399999999999994138, 53.00000000000000000 ) ) ;
#152 = APPROVAL_PERSON_ORGANIZATION ( #204, #59, #256 ) ;
#153 = CC_DESIGN_APPROVAL ( #170, ( #88 ) ) ;
#154 = FACE_OUTER_BOUND ( 'NONE', #242, .T. ) ;
#155 = ADVANCED_FACE ( 'NONE', ( #233 ), #236, .F. ) ;
#156 = DIRECTION ( 'NONE',  ( 0.0000000000000000000, 1.000000000000000000, 0.0000000000000000000 ) ) ;
#157 = EDGE_LOOP ( 'NONE', ( #72 ) ) ;
#158 = COORDINATED_UNIVERSAL_TIME_OFFSET ( 1, 0, .AHEAD. ) ;
#159 = DIRECTION ( 'NONE',  ( -4.275831445896958607E-31, -1.000000000000000000, -1.224646799147353207E-16 ) ) ;
#160 = LOCAL_TIME ( 13, 36, 28.00000000000000000, #18 ) ;
#161 = APPROVAL_DATE_TIME ( #185, #59 ) ;
#162 = EDGE_LOOP ( 'NONE', ( #254 ) ) ;
#163 = VERTEX_POINT ( 'NONE', #206 ) ;
#164 = PERSON_AND_ORGANIZATION_ROLE ( 'design_owner' ) ;
#165 = VERTEX_POINT ( 'NONE', #49 ) ;
#166 = CIRCLE ( 'NONE', #228, 5.533974596215580632 ) ;
#167 = PRODUCT_DEFINITION ( 'UNKNOWN', '', #120, #21 ) ;
#168 = ADVANCED_BREP_SHAPE_REPRESENTATION ( '59472', ( #188, #97, #100 ), #131 ) ;
#169 = APPROVAL_PERSON_ORGANIZATION ( #207, #249, #67 ) ;
#170 = APPROVAL ( #190, 'UNSPECIFIED' ) ;
#171 = DIRECTION ( 'NONE',  ( 4.275831445896958607E-31, 1.000000000000000000, 1.224646799147353207E-16 ) ) ;
#172 = DIRECTION ( 'NONE',  ( 3.491481338843133355E-15, -4.327174794786742882E-16, 1.000000000000000000 ) ) ;
#173 = CLOSED_SHELL ( 'NONE', ( #37, #195, #260 ) ) ;
#174 = FACE_BOUND ( 'NONE', #41, .T. ) ;
#175 = FACE_OUTER_BOUND ( 'NONE', #107, .T. ) ;
#176 = VERTEX_POINT ( 'NONE', #1 ) ;
#177 = CARTESIAN_POINT ( 'NONE',  ( 7.624771685008940888E-15, -2.674409894274132817E-16, 2.183821405597239362 ) ) ;
#178 = DATE_TIME_ROLE ( 'creation_date' ) ;
#179 = FACE_BOUND ( 'NONE', #93, .T. ) ;
#180 = CIRCLE ( 'NONE', #101, 5.400000000000009237 ) ;
#181 = EDGE_CURVE ( 'NONE', #34, #34, #166, .T. ) ;
#182 = LOCAL_TIME ( 13, 36, 28.00000000000000000, #143 ) ;
#183 = PERSON_AND_ORGANIZATION_ROLE ( 'creator' ) ;
#184 = DIRECTION ( 'NONE',  ( -3.491481338843133355E-15, 1.224646799147353207E-16, -1.000000000000000000 ) ) ;
#185 = DATE_AND_TIME ( #69, #33 ) ;
#186 = CARTESIAN_POINT ( 'NONE',  ( 1.867942516281076156E-13, 5.533974596215557540, 53.49999999999999289 ) ) ;
#187 = AXIS2_PLACEMENT_3D ( 'NONE', #26, #235, #25 ) ;
#188 = MANIFOLD_SOLID_BREP ( 'Corps-Déplacer/Copier1[1]', #259 ) ;
#189 = AXIS2_PLACEMENT_3D ( 'NONE', #45, #39, #65 ) ;
#190 = APPROVAL_STATUS ( 'not_yet_approved' ) ;
#191 = EDGE_CURVE ( 'NONE', #123, #123, #251, .T. ) ;
#192 = PLANE ( 'NONE',  #56 ) ;
#193 = AXIS2_PLACEMENT_3D ( 'NONE', #134, #60, #43 ) ;
#194 = DIRECTION ( 'NONE',  ( -4.275831445896958607E-31, -1.000000000000000000, -1.224646799147353207E-16 ) ) ;
#195 = ADVANCED_FACE ( 'NONE', ( #216, #64 ), #6, .T. ) ;
#196 = CARTESIAN_POINT ( 'NONE',  ( 3.526396152231564058E-13, 5.999999999999989342, 100.9999999999999716 ) ) ;
#197 = CARTESIAN_POINT ( 'NONE',  ( 1.926362159436277723E-13, -2.387441023730510098E-14, 55.17320508075687968 ) ) ;
#198 = FACE_OUTER_BOUND ( 'NONE', #92, .T. ) ;
#199 = PLANE ( 'NONE',  #35 ) ;
#200 = CARTESIAN_POINT ( 'NONE',  ( 1.396592535537253342E-13, 4.499279347985561328E-32, 40.00000000000000000 ) ) ;
#201 = PERSON_AND_ORGANIZATION ( #12, #42 ) ;
#202 = DIRECTION ( 'NONE',  ( -3.491481338843133355E-15, 1.224646799147353207E-16, -1.000000000000000000 ) ) ;
#203 = CONICAL_SURFACE ( 'NONE', #38, 5.000000000000001776, 0.7853981633974410625 ) ;
#204 = PERSON_AND_ORGANIZATION ( #12, #42 ) ;
#205 = EDGE_LOOP ( 'NONE', ( #85 ) ) ;
#206 = CARTESIAN_POINT ( 'NONE',  ( 1.396592535537253342E-13, -5.400000000000026112, 40.00000000000000000 ) ) ;
#207 = PERSON_AND_ORGANIZATION ( #12, #42 ) ;
#208 = SHAPE_DEFINITION_REPRESENTATION ( #145, #168 ) ;
#209 = PERSON_AND_ORGANIZATION ( #12, #42 ) ;
#210 = FACE_OUTER_BOUND ( 'NONE', #205, .T. ) ;
#211 = ORIENTED_EDGE ( 'NONE', *, *, #237, .T. ) ;
#212 = FACE_OUTER_BOUND ( 'NONE', #66, .T. ) ;
#213 = TOROIDAL_SURFACE ( 'NONE', #193, 6.400000000000016342, 0.9999999999999983347 ) ;
#214 = DIRECTION ( 'NONE',  ( -3.491481338843133355E-15, 1.224646799147353207E-16, -1.000000000000000000 ) ) ;
#215 = APPLICATION_CONTEXT ( 'configuration controlled 3d designs of mechanical parts and assemblies' ) ;
#216 = FACE_OUTER_BOUND ( 'NONE', #258, .T. ) ;
#217 = DIRECTION ( 'NONE',  ( -3.491481338843133355E-15, 4.327174794786742882E-16, -1.000000000000000000 ) ) ;
#218 = EDGE_LOOP ( 'NONE', ( #239 ) ) ;
#219 =( LENGTH_UNIT ( ) NAMED_UNIT ( * ) SI_UNIT ( .MILLI., .METRE. ) );
#220 = CC_DESIGN_PERSON_AND_ORGANIZATION_ASSIGNMENT ( #201, #183, ( #167 ) ) ;
#221 = ORIENTED_EDGE ( 'NONE', *, *, #17, .T. ) ;
#222 = PERSON_AND_ORGANIZATION ( #12, #42 ) ;
#223 = ORIENTED_EDGE ( 'NONE', *, *, #181, .F. ) ;
#224 = ORIENTED_EDGE ( 'NONE', *, *, #17, .F. ) ;
#225 = AXIS2_PLACEMENT_3D ( 'NONE', #250, #103, #171 ) ;
#226 = APPLICATION_PROTOCOL_DEFINITION ( 'international standard', 'config_control_design', 1994, #98 ) ;
#227 = MECHANICAL_CONTEXT ( 'NONE', #98, 'mechanical' ) ;
#228 = AXIS2_PLACEMENT_3D ( 'NONE', #253, #132, #156 ) ;
#229 = ADVANCED_FACE ( 'NONE', ( #106, #89 ), #109, .T. ) ;
#230 = DATE_TIME_ROLE ( 'classification_date' ) ;
#231 = ORIENTED_EDGE ( 'NONE', *, *, #102, .F. ) ;
#232 = CARTESIAN_POINT ( 'NONE',  ( 3.561310965619995770E-13, -1.249139735130300089E-14, 102.0000000000000000 ) ) ;
#233 = FACE_OUTER_BOUND ( 'NONE', #162, .T. ) ;
#234 = CC_DESIGN_APPROVAL ( #249, ( #167 ) ) ;
#235 = DIRECTION ( 'NONE',  ( -3.491481338843133355E-15, 4.327174794786742882E-16, -1.000000000000000000 ) ) ;
#236 = PLANE ( 'NONE',  #225 ) ;
#237 = EDGE_CURVE ( 'NONE', #165, #165, #105, .T. ) ;
#238 = CALENDAR_DATE ( 2021, 13, 10 ) ;
#239 = ORIENTED_EDGE ( 'NONE', *, *, #87, .F. ) ;
#240 = PERSON_AND_ORGANIZATION ( #12, #42 ) ;
#241 = DIRECTION ( 'NONE',  ( -4.279844320860517014E-31, -1.000000000000000000, -1.606225440719263162E-16 ) ) ;
#242 = EDGE_LOOP ( 'NONE', ( #231 ) ) ;
#243 = APPLICATION_PROTOCOL_DEFINITION ( 'international standard', 'config_control_design', 1994, #215 ) ;
#244 = AXIS2_PLACEMENT_3D ( 'NONE', #83, #86, #135 ) ;
#245 = CIRCLE ( 'NONE', #244, 5.400000000000009237 ) ;
#246 = AXIS2_PLACEMENT_3D ( 'NONE', #30, #117, #19 ) ;
#247 = CARTESIAN_POINT ( 'NONE',  ( 1.396592535537253342E-13, 4.499279347985561328E-32, 40.00000000000000000 ) ) ;
#248 = DIRECTION ( 'NONE',  ( 0.0000000000000000000, -1.000000000000000000, 0.0000000000000000000 ) ) ;
#249 = APPROVAL ( #140, 'UNSPECIFIED' ) ;
#250 = CARTESIAN_POINT ( 'NONE',  ( 3.561310965619995770E-13, 3.749399456654627598E-32, 102.0000000000000000 ) ) ;
#251 = CIRCLE ( 'NONE', #27, 5.400000000000009237 ) ;
#252 = CC_DESIGN_SECURITY_CLASSIFICATION ( #88, ( #120 ) ) ;
#253 = CARTESIAN_POINT ( 'NONE',  ( 1.867942516281076156E-13, -2.315038515210906969E-14, 53.49999999999999289 ) ) ;
#254 = ORIENTED_EDGE ( 'NONE', *, *, #237, .F. ) ;
#255 = DIRECTION ( 'NONE',  ( 0.0000000000000000000, 1.000000000000000000, 0.0000000000000000000 ) ) ;
#256 = APPROVAL_ROLE ( '' ) ;
#257 = FACE_OUTER_BOUND ( 'NONE', #150, .T. ) ;
#258 = EDGE_LOOP ( 'NONE', ( #46 ) ) ;
#259 = CLOSED_SHELL ( 'NONE', ( #142, #2, #155, #229, #127, #108, #53 ) ) ;
#260 = ADVANCED_FACE ( 'NONE', ( #210 ), #192, .T. ) ;
#261 = CIRCLE ( 'NONE', #246, 5.999999999999998224 ) ;
#262 = LOCAL_TIME ( 13, 36, 28.00000000000000000, #137 ) ;
#263 = SECURITY_CLASSIFICATION_LEVEL ( 'unclassified' ) ;
ENDSEC;
END-ISO-10303-21;
