ISO-10303-21;
HEADER;
FILE_DESCRIPTION (( 'STEP AP203' ),
    '1' );
FILE_NAME ('59401.step',
    '2021-09-03T07:55:30',
    ( '' ),
    ( '' ),
    'SwSTEP 2.0',
    'SolidWorks 2019',
    '' );
FILE_SCHEMA (( 'CONFIG_CONTROL_DESIGN' ));
ENDSEC;

DATA;
#1 = COORDINATED_UNIVERSAL_TIME_OFFSET ( 1, 0, .AHEAD. ) ;
#2 = DIRECTION ( 'NONE',  ( 3.491481338843133355E-15, -1.224646799147353454E-16, 1.000000000000000000 ) ) ;
#3 = ORIENTED_EDGE ( 'NONE', *, *, #77, .F. ) ;
#4 = DATE_AND_TIME ( #82, #319 ) ;
#5 = ORIENTED_EDGE ( 'NONE', *, *, #174, .F. ) ;
#6 = PERSON_AND_ORGANIZATION_ROLE ( 'creator' ) ;
#7 = VERTEX_POINT ( 'NONE', #313 ) ;
#8 = PERSON_AND_ORGANIZATION ( #217, #92 ) ;
#9 = ORIENTED_EDGE ( 'NONE', *, *, #25, .F. ) ;
#10 = APPROVAL_PERSON_ORGANIZATION ( #8, #120, #180 ) ;
#11 = DIRECTION ( 'NONE',  ( -3.491481338843133355E-15, 1.224646799147353454E-16, -1.000000000000000000 ) ) ;
#12 = EDGE_CURVE ( 'NONE', #309, #238, #76, .T. ) ;
#13 = FACE_OUTER_BOUND ( 'NONE', #31, .T. ) ;
#14 = PRODUCT ( '59401', '59401', '', ( #336 ) ) ;
#15 = FACE_OUTER_BOUND ( 'NONE', #318, .T. ) ;
#16 = CLOSED_SHELL ( 'NONE', ( #49, #326, #51, #290, #17 ) ) ;
#17 = ADVANCED_FACE ( 'NONE', ( #181 ), #129, .T. ) ;
#18 = DIRECTION ( 'NONE',  ( -3.491481338843133355E-15, 1.224646799147353454E-16, -1.000000000000000000 ) ) ;
#19 = CARTESIAN_POINT ( 'NONE',  ( 2.932844324628232018E-13, -1.028703311283776980E-14, 84.00000000000000000 ) ) ;
#20 = CARTESIAN_POINT ( 'NONE',  ( 1.964354406367075667E-13, -4.599999999999996092, 29.00000000000000000 ) ) ;
#21 = AXIS2_PLACEMENT_3D ( 'NONE', #272, #188, #66 ) ;
#22 = CARTESIAN_POINT ( 'NONE',  ( 1.012529588264508673E-13, 4.599999999999989875, 29.00000000000000000 ) ) ;
#23 = DIRECTION ( 'NONE',  ( -3.491481338843133355E-15, 1.224646799147353454E-16, -1.000000000000000000 ) ) ;
#24 = PLANE ( 'NONE',  #244 ) ;
#25 = EDGE_CURVE ( 'NONE', #238, #309, #310, .T. ) ;
#26 = FACE_OUTER_BOUND ( 'NONE', #211, .T. ) ;
#27 = LOCAL_TIME ( 9, 55, 30.00000000000000000, #34 ) ;
#28 = EDGE_LOOP ( 'NONE', ( #84, #158, #100, #3 ) ) ;
#29 = DATE_AND_TIME ( #260, #27 ) ;
#30 = COORDINATED_UNIVERSAL_TIME_OFFSET ( 1, 0, .AHEAD. ) ;
#31 = EDGE_LOOP ( 'NONE', ( #179, #185, #5, #213 ) ) ;
#32 = COORDINATED_UNIVERSAL_TIME_OFFSET ( 1, 0, .AHEAD. ) ;
#33 = ORIENTED_EDGE ( 'NONE', *, *, #12, .T. ) ;
#34 = COORDINATED_UNIVERSAL_TIME_OFFSET ( 1, 0, .AHEAD. ) ;
#35 = ORIENTED_EDGE ( 'NONE', *, *, #203, .F. ) ;
#36 = EDGE_LOOP ( 'NONE', ( #176, #216, #64 ) ) ;
#37 = CARTESIAN_POINT ( 'NONE',  ( 1.966882465112597561E-30, 4.599999999999991651, 5.633375276077815237E-16 ) ) ;
#38 = EDGE_CURVE ( 'NONE', #309, #103, #141, .T. ) ;
#39 = CARTESIAN_POINT ( 'NONE',  ( 1.966882465112599663E-30, 4.599999999999996092, 5.633375276077821154E-16 ) ) ;
#40 = DIRECTION ( 'NONE',  ( 0.0000000000000000000, 1.000000000000000000, 0.0000000000000000000 ) ) ;
#41 = DIRECTION ( 'NONE',  ( 4.275831445896958607E-31, 1.000000000000000000, 1.224646799147353454E-16 ) ) ;
#42 = CONICAL_SURFACE ( 'NONE', #218, 3.799999999999999822, 0.7853981633974512766 ) ;
#43 = AXIS2_PLACEMENT_3D ( 'NONE', #115, #222, #221 ) ;
#44 = DIRECTION ( 'NONE',  ( 0.0000000000000000000, 1.000000000000000000, 0.0000000000000000000 ) ) ;
#45 = DIRECTION ( 'NONE',  ( 3.349443381543026414E-31, 1.000000000000000000, 9.427844978134842387E-17 ) ) ;
#46 = ADVANCED_FACE ( 'NONE', ( #15 ), #224, .F. ) ;
#47 = VECTOR ( 'NONE', #168, 1000.000000000000114 ) ;
#48 = DIRECTION ( 'NONE',  ( -3.491481338843133355E-15, 1.224646799147353454E-16, -1.000000000000000000 ) ) ;
#49 = ADVANCED_FACE ( 'NONE', ( #193 ), #140, .T. ) ;
#50 = FACE_OUTER_BOUND ( 'NONE', #85, .T. ) ;
#51 = ADVANCED_FACE ( 'NONE', ( #95 ), #201, .T. ) ;
#52 = DIRECTION ( 'NONE',  ( -3.491481338843133355E-15, 1.224646799147353454E-16, -1.000000000000000000 ) ) ;
#53 = CC_DESIGN_SECURITY_CLASSIFICATION ( #183, ( #329 ) ) ;
#54 = PERSON_AND_ORGANIZATION_ROLE ( 'design_owner' ) ;
#55 = ORIENTED_EDGE ( 'NONE', *, *, #38, .T. ) ;
#56 = APPLICATION_PROTOCOL_DEFINITION ( 'international standard', 'config_control_design', 1994, #316 ) ;
#57 = EDGE_LOOP ( 'NONE', ( #242, #289, #292 ) ) ;
#58 = APPROVAL_DATE_TIME ( #214, #109 ) ;
#59 = CIRCLE ( 'NONE', #21, 4.599999999999989875 ) ;
#60 = ORIENTED_EDGE ( 'NONE', *, *, #38, .F. ) ;
#61 = VECTOR ( 'NONE', #200, 1000.000000000000000 ) ;
#62 = VERTEX_POINT ( 'NONE', #249 ) ;
#63 = CC_DESIGN_PERSON_AND_ORGANIZATION_ASSIGNMENT ( #153, #54, ( #14 ) ) ;
#64 = ORIENTED_EDGE ( 'NONE', *, *, #337, .T. ) ;
#65 = PRODUCT_DEFINITION_SHAPE ( 'NONE', 'NONE',  #98 ) ;
#66 = DIRECTION ( 'NONE',  ( 3.349443381543026414E-31, 1.000000000000000000, 9.427844978134842387E-17 ) ) ;
#67 = VECTOR ( 'NONE', #254, 1000.000000000000000 ) ;
#68 = CARTESIAN_POINT ( 'NONE',  ( 1.021364826507798534E-14, 4.599999999999989875, 2.763958847526802209 ) ) ;
#69 = LINE ( 'NONE', #297, #209 ) ;
#70 = LINE ( 'NONE', #73, #47 ) ;
#71 = VECTOR ( 'NONE', #248, 1000.000000000000000 ) ;
#72 = APPROVAL_PERSON_ORGANIZATION ( #308, #109, #288 ) ;
#73 = CARTESIAN_POINT ( 'NONE',  ( 2.932844324628232018E-13, 3.799999999999989608, 84.00000000000000000 ) ) ;
#74 = CARTESIAN_POINT ( 'NONE',  ( 0.0000000000000000000, 0.0000000000000000000, 0.0000000000000000000 ) ) ;
#75 = CARTESIAN_POINT ( 'NONE',  ( 5.633375276077794530E-16, -4.599999999999991651, -5.633375276077833973E-16 ) ) ;
#76 = CIRCLE ( 'NONE', #333, 3.799999999999999822 ) ;
#77 = EDGE_CURVE ( 'NONE', #7, #154, #59, .T. ) ;
#78 =( LENGTH_UNIT ( ) NAMED_UNIT ( * ) SI_UNIT ( .MILLI., .METRE. ) );
#79 = ADVANCED_FACE ( 'NONE', ( #327 ), #42, .T. ) ;
#80 = ORIENTED_EDGE ( 'NONE', *, *, #196, .F. ) ;
#81 = EDGE_LOOP ( 'NONE', ( #130, #186, #108, #182 ) ) ;
#82 = CALENDAR_DATE ( 2021, 3, 9 ) ;
#83 = CARTESIAN_POINT ( 'NONE',  ( 2.932844324628232018E-13, -1.028703311283776980E-14, 84.00000000000000000 ) ) ;
#84 = ORIENTED_EDGE ( 'NONE', *, *, #205, .F. ) ;
#85 = EDGE_LOOP ( 'NONE', ( #60, #33, #220, #269 ) ) ;
#86 =( GEOMETRIC_REPRESENTATION_CONTEXT ( 3 ) GLOBAL_UNCERTAINTY_ASSIGNED_CONTEXT ( ( #114 ) ) GLOBAL_UNIT_ASSIGNED_CONTEXT ( ( #78, #206, #305 ) ) REPRESENTATION_CONTEXT ( 'NONE', 'WORKASPACE' ) );
#87 = EDGE_CURVE ( 'NONE', #62, #154, #69, .T. ) ;
#88 = EDGE_LOOP ( 'NONE', ( #159, #285 ) ) ;
#89 = CARTESIAN_POINT ( 'NONE',  ( 2.904912473917487456E-13, -1.018906136890598294E-14, 83.20000000000001705 ) ) ;
#90 = CARTESIAN_POINT ( 'NONE',  ( 0.0000000000000000000, 0.0000000000000000000, 0.0000000000000000000 ) ) ;
#91 = AXIS2_PLACEMENT_3D ( 'NONE', #229, #52, #45 ) ;
#92 = ORGANIZATION ( 'UNSPECIFIED', 'UNSPECIFIED', '' ) ;
#93 = LINE ( 'NONE', #226, #71 ) ;
#94 = DIRECTION ( 'NONE',  ( 0.0000000000000000000, 1.000000000000000000, 0.0000000000000000000 ) ) ;
#95 = FACE_OUTER_BOUND ( 'NONE', #57, .T. ) ;
#96 = DIRECTION ( 'NONE',  ( 1.000000000000000000, 0.0000000000000000000, 0.0000000000000000000 ) ) ;
#97 = CARTESIAN_POINT ( 'NONE',  ( 0.0000000000000000000, 0.0000000000000000000, 0.0000000000000000000 ) ) ;
#98 = PRODUCT_DEFINITION ( 'UNKNOWN', '', #329, #198 ) ;
#99 = CARTESIAN_POINT ( 'NONE',  ( 2.932844324628232018E-13, 3.799999999999989608, 84.00000000000000000 ) ) ;
#100 = ORIENTED_EDGE ( 'NONE', *, *, #145, .T. ) ;
#101 = AXIS2_PLACEMENT_3D ( 'NONE', #234, #2, #287 ) ;
#102 = APPROVAL_DATE_TIME ( #4, #293 ) ;
#103 = VERTEX_POINT ( 'NONE', #187 ) ;
#104 = DATE_AND_TIME ( #237, #259 ) ;
#105 = VERTEX_POINT ( 'NONE', #121 ) ;
#106 = EDGE_CURVE ( 'NONE', #103, #262, #93, .T. ) ;
#107 = SECURITY_CLASSIFICATION_LEVEL ( 'unclassified' ) ;
#108 = ORIENTED_EDGE ( 'NONE', *, *, #131, .T. ) ;
#109 = APPROVAL ( #312, 'UNSPECIFIED' ) ;
#110 = AXIS2_PLACEMENT_3D ( 'NONE', #191, #325, #44 ) ;
#111 = VERTEX_POINT ( 'NONE', #277 ) ;
#112 = CC_DESIGN_PERSON_AND_ORGANIZATION_ASSIGNMENT ( #286, #267, ( #98 ) ) ;
#113 = DIRECTION ( 'NONE',  ( 4.275831445896959482E-31, 1.000000000000000000, 1.224646799147353454E-16 ) ) ;
#114 = UNCERTAINTY_MEASURE_WITH_UNIT (LENGTH_MEASURE( 1.000000000000000082E-05 ), #78, 'distance_accuracy_value', 'NONE');
#115 = CARTESIAN_POINT ( 'NONE',  ( 0.0000000000000000000, 0.0000000000000000000, 0.0000000000000000000 ) ) ;
#116 = DIRECTION ( 'NONE',  ( 0.0000000000000000000, 1.000000000000000000, 0.0000000000000000000 ) ) ;
#117 = AXIS2_PLACEMENT_3D ( 'NONE', #156, #166, #138 ) ;
#118 = EDGE_CURVE ( 'NONE', #262, #111, #258, .T. ) ;
#119 = CARTESIAN_POINT ( 'NONE',  ( 2.937497982464992005E-13, -3.800000000000010481, 84.00000000000000000 ) ) ;
#120 = APPROVAL ( #184, 'UNSPECIFIED' ) ;
#121 = CARTESIAN_POINT ( 'NONE',  ( 2.904912473917487456E-13, 4.599999999999989875, 83.20000000000001705 ) ) ;
#122 = APPLICATION_PROTOCOL_DEFINITION ( 'international standard', 'config_control_design', 1994, #298 ) ;
#123 = LINE ( 'NONE', #304, #61 ) ;
#124 = DIRECTION ( 'NONE',  ( -3.491481338843133355E-15, 1.224646799147353454E-16, -1.000000000000000000 ) ) ;
#125 = CARTESIAN_POINT ( 'NONE',  ( 5.601497230956827409E-14, -4.599999999999996092, 29.00000000000000000 ) ) ;
#126 = CC_DESIGN_DATE_AND_TIME_ASSIGNMENT ( #104, #212, ( #183 ) ) ;
#127 = APPROVAL_PERSON_ORGANIZATION ( #132, #293, #152 ) ;
#128 = PERSON_AND_ORGANIZATION ( #217, #92 ) ;
#129 = PLANE ( 'NONE',  #101 ) ;
#130 = ORIENTED_EDGE ( 'NONE', *, *, #106, .F. ) ;
#131 = EDGE_CURVE ( 'NONE', #105, #111, #274, .T. ) ;
#132 = PERSON_AND_ORGANIZATION ( #217, #92 ) ;
#133 = ORIENTED_EDGE ( 'NONE', *, *, #118, .T. ) ;
#134 = ADVANCED_FACE ( 'NONE', ( #13 ), #328, .T. ) ;
#135 = CALENDAR_DATE ( 2021, 3, 9 ) ;
#136 = ORIENTED_EDGE ( 'NONE', *, *, #174, .T. ) ;
#137 = ORIENTED_EDGE ( 'NONE', *, *, #205, .T. ) ;
#138 = DIRECTION ( 'NONE',  ( 0.0000000000000000000, 1.000000000000000000, 0.0000000000000000000 ) ) ;
#139 = CIRCLE ( 'NONE', #91, 4.599999999999989875 ) ;
#140 = CYLINDRICAL_SURFACE ( 'NONE', #243, 4.599999999999991651 ) ;
#141 = LINE ( 'NONE', #119, #143 ) ;
#142 = DIRECTION ( 'NONE',  ( -3.349443381543026414E-31, -1.000000000000000000, -9.427844978134842387E-17 ) ) ;
#143 = VECTOR ( 'NONE', #246, 1000.000000000000114 ) ;
#144 = CONICAL_SURFACE ( 'NONE', #219, 4.599999999999989875, 1.029744258676649649 ) ;
#145 = EDGE_CURVE ( 'NONE', #331, #154, #302, .T. ) ;
#146 = MANIFOLD_SOLID_BREP ( 'Corps-Déplacer/Copier1[2]', #16 ) ;
#147 = CARTESIAN_POINT ( 'NONE',  ( 9.650310737470201455E-15, -3.384873355598705495E-16, 2.763958847526801765 ) ) ;
#148 = CARTESIAN_POINT ( 'NONE',  ( 2.932844324628232018E-13, -1.028703311283776980E-14, 84.00000000000000000 ) ) ;
#149 = CARTESIAN_POINT ( 'NONE',  ( 1.012529588264508673E-13, -3.551475717527324818E-15, 29.00000000000000000 ) ) ;
#150 = LINE ( 'NONE', #75, #67 ) ;
#151 = CIRCLE ( 'NONE', #236, 4.599999999999992539 ) ;
#152 = APPROVAL_ROLE ( '' ) ;
#153 = PERSON_AND_ORGANIZATION ( #217, #92 ) ;
#154 = VERTEX_POINT ( 'NONE', #68 ) ;
#155 = APPROVAL_STATUS ( 'not_yet_approved' ) ;
#156 = CARTESIAN_POINT ( 'NONE',  ( 2.932844324628232018E-13, -1.028703311283776980E-14, 84.00000000000000000 ) ) ;
#157 = CIRCLE ( 'NONE', #301, 4.599999999999999645 ) ;
#158 = ORIENTED_EDGE ( 'NONE', *, *, #173, .T. ) ;
#159 = ORIENTED_EDGE ( 'NONE', *, *, #307, .F. ) ;
#160 = DIRECTION ( 'NONE',  ( -3.491481338843133355E-15, 1.224646799147353454E-16, -1.000000000000000000 ) ) ;
#161 = AXIS2_PLACEMENT_3D ( 'NONE', #323, #11, #113 ) ;
#162 = DIRECTION ( 'NONE',  ( -3.491481338843133355E-15, 1.224646799147353454E-16, -1.000000000000000000 ) ) ;
#163 = DIRECTION ( 'NONE',  ( 0.0000000000000000000, 1.000000000000000000, 0.0000000000000000000 ) ) ;
#164 = DIRECTION ( 'NONE',  ( -3.491481338843133355E-15, 1.224646799147353454E-16, -1.000000000000000000 ) ) ;
#165 = EDGE_CURVE ( 'NONE', #103, #105, #157, .T. ) ;
#166 = DIRECTION ( 'NONE',  ( -3.491481338843133355E-15, 1.224646799147353454E-16, -1.000000000000000000 ) ) ;
#167 = CC_DESIGN_APPROVAL ( #293, ( #98 ) ) ;
#168 = DIRECTION ( 'NONE',  ( -2.468850131082257455E-15, 0.7071067811865497932, -0.7071067811865453523 ) ) ;
#169 = CARTESIAN_POINT ( 'NONE',  ( 2.924021915829278058E-13, -3.800000000000010481, 84.00000000000000000 ) ) ;
#170 = CARTESIAN_POINT ( 'NONE',  ( 1.012529588264508673E-13, 3.449447500122263740E-32, 29.00000000000000000 ) ) ;
#171 = AXIS2_PLACEMENT_3D ( 'NONE', #89, #256, #197 ) ;
#172 = DIRECTION ( 'NONE',  ( 3.491481338843133355E-15, -1.224646799147353454E-16, 1.000000000000000000 ) ) ;
#173 = EDGE_CURVE ( 'NONE', #320, #331, #228, .T. ) ;
#174 = EDGE_CURVE ( 'NONE', #111, #262, #324, .T. ) ;
#175 = DIRECTION ( 'NONE',  ( 0.0000000000000000000, 1.000000000000000000, 0.0000000000000000000 ) ) ;
#176 = ORIENTED_EDGE ( 'NONE', *, *, #335, .F. ) ;
#177 = CC_DESIGN_APPROVAL ( #109, ( #329 ) ) ;
#178 = CC_DESIGN_DATE_AND_TIME_ASSIGNMENT ( #29, #317, ( #98 ) ) ;
#179 = ORIENTED_EDGE ( 'NONE', *, *, #203, .T. ) ;
#180 = APPROVAL_ROLE ( '' ) ;
#181 = FACE_OUTER_BOUND ( 'NONE', #88, .T. ) ;
#182 = ORIENTED_EDGE ( 'NONE', *, *, #118, .F. ) ;
#183 = SECURITY_CLASSIFICATION ( '', '', #107 ) ;
#184 = APPROVAL_STATUS ( 'not_yet_approved' ) ;
#185 = ORIENTED_EDGE ( 'NONE', *, *, #106, .T. ) ;
#186 = ORIENTED_EDGE ( 'NONE', *, *, #165, .T. ) ;
#187 = CARTESIAN_POINT ( 'NONE',  ( 1.964354406367074405E-13, -4.600000000000010303, 83.20000000000001705 ) ) ;
#188 = DIRECTION ( 'NONE',  ( -3.491481338843133355E-15, 1.224646799147353454E-16, -1.000000000000000000 ) ) ;
#189 = VECTOR ( 'NONE', #164, 1000.000000000000000 ) ;
#190 = DIRECTION ( 'NONE',  ( -3.491481338843133355E-15, 1.224646799147353454E-16, -1.000000000000000000 ) ) ;
#191 = CARTESIAN_POINT ( 'NONE',  ( 1.012529588264508673E-13, -3.551475717527324818E-15, 29.00000000000000000 ) ) ;
#192 = CC_DESIGN_PERSON_AND_ORGANIZATION_ASSIGNMENT ( #261, #233, ( #183 ) ) ;
#193 = FACE_OUTER_BOUND ( 'NONE', #240, .T. ) ;
#194 = PRODUCT_RELATED_PRODUCT_CATEGORY ( 'detail', '', ( #14 ) ) ;
#195 = CC_DESIGN_APPROVAL ( #120, ( #183 ) ) ;
#196 = EDGE_CURVE ( 'NONE', #238, #105, #70, .T. ) ;
#197 = DIRECTION ( 'NONE',  ( 0.0000000000000000000, 1.000000000000000000, 0.0000000000000000000 ) ) ;
#198 = DESIGN_CONTEXT ( 'detailed design', #316, 'design' ) ;
#199 = DIRECTION ( 'NONE',  ( 0.0000000000000000000, 1.000000000000000000, 0.0000000000000000000 ) ) ;
#200 = DIRECTION ( 'NONE',  ( 1.798245827342160317E-15, -0.8571673007021098911, 0.5150380749100582634 ) ) ;
#201 = CONICAL_SURFACE ( 'NONE', #275, 4.599999999999989875, 1.029744258676649649 ) ;
#202 = VECTOR ( 'NONE', #18, 1000.000000000000000 ) ;
#203 = EDGE_CURVE ( 'NONE', #105, #103, #291, .T. ) ;
#204 = FACE_OUTER_BOUND ( 'NONE', #28, .T. ) ;
#205 = EDGE_CURVE ( 'NONE', #320, #7, #150, .T. ) ;
#206 =( NAMED_UNIT ( * ) PLANE_ANGLE_UNIT ( ) SI_UNIT ( $, .RADIAN. ) );
#207 = DATE_AND_TIME ( #210, #296 ) ;
#208 = EDGE_LOOP ( 'NONE', ( #268, #55, #35, #80 ) ) ;
#209 = VECTOR ( 'NONE', #223, 999.9999999999998863 ) ;
#210 = CALENDAR_DATE ( 2021, 3, 9 ) ;
#211 = EDGE_LOOP ( 'NONE', ( #136, #133 ) ) ;
#212 = DATE_TIME_ROLE ( 'classification_date' ) ;
#213 = ORIENTED_EDGE ( 'NONE', *, *, #131, .F. ) ;
#214 = DATE_AND_TIME ( #135, #280 ) ;
#215 = ADVANCED_FACE ( 'NONE', ( #26 ), #24, .F. ) ;
#216 = ORIENTED_EDGE ( 'NONE', *, *, #87, .T. ) ;
#217 = PERSON ( 'UNSPECIFIED', 'UNSPECIFIED', 'UNSPECIFIED', ('UNSPECIFIED'), ('UNSPECIFIED'), ('UNSPECIFIED') ) ;
#218 = AXIS2_PLACEMENT_3D ( 'NONE', #19, #190, #116 ) ;
#219 = AXIS2_PLACEMENT_3D ( 'NONE', #230, #172, #282 ) ;
#220 = ORIENTED_EDGE ( 'NONE', *, *, #196, .T. ) ;
#221 = DIRECTION ( 'NONE',  ( 4.275831445896959482E-31, 1.000000000000000000, 1.224646799147353454E-16 ) ) ;
#222 = DIRECTION ( 'NONE',  ( -3.491481338843133355E-15, 1.224646799147353454E-16, -1.000000000000000000 ) ) ;
#223 = DIRECTION ( 'NONE',  ( 1.903218546456022717E-15, 0.8571673007021097801, 0.5150380749100585964 ) ) ;
#224 = PLANE ( 'NONE',  #161 ) ;
#225 = CC_DESIGN_PERSON_AND_ORGANIZATION_ASSIGNMENT ( #239, #6, ( #329 ) ) ;
#226 = CARTESIAN_POINT ( 'NONE',  ( 5.633375276077801432E-16, -4.599999999999996092, -5.633375276077840875E-16 ) ) ;
#227 = CARTESIAN_POINT ( 'NONE',  ( 0.0000000000000000000, 0.0000000000000000000, 0.0000000000000000000 ) ) ;
#228 = CIRCLE ( 'NONE', #311, 4.599999999999992539 ) ;
#229 = CARTESIAN_POINT ( 'NONE',  ( 9.650310737470201455E-15, -3.384873355598705495E-16, 2.763958847526801765 ) ) ;
#230 = CARTESIAN_POINT ( 'NONE',  ( 9.650310737470201455E-15, -3.384873355598705495E-16, 2.763958847526801765 ) ) ;
#231 = DIRECTION ( 'NONE',  ( 3.491481338843133355E-15, -1.224646799147353454E-16, 1.000000000000000000 ) ) ;
#232 = AXIS2_PLACEMENT_3D ( 'NONE', #300, #273, #40 ) ;
#233 = PERSON_AND_ORGANIZATION_ROLE ( 'classification_officer' ) ;
#234 = CARTESIAN_POINT ( 'NONE',  ( 1.012529588264508673E-13, 3.449447500122263740E-32, 29.00000000000000000 ) ) ;
#235 = ORIENTED_EDGE ( 'NONE', *, *, #307, .T. ) ;
#236 = AXIS2_PLACEMENT_3D ( 'NONE', #149, #23, #199 ) ;
#237 = CALENDAR_DATE ( 2021, 3, 9 ) ;
#238 = VERTEX_POINT ( 'NONE', #99 ) ;
#239 = PERSON_AND_ORGANIZATION ( #217, #92 ) ;
#240 = EDGE_LOOP ( 'NONE', ( #235, #137, #315, #264 ) ) ;
#241 = PERSON_AND_ORGANIZATION_ROLE ( 'design_supplier' ) ;
#242 = ORIENTED_EDGE ( 'NONE', *, *, #87, .F. ) ;
#243 = AXIS2_PLACEMENT_3D ( 'NONE', #90, #162, #41 ) ;
#244 = AXIS2_PLACEMENT_3D ( 'NONE', #170, #231, #250 ) ;
#245 = DIRECTION ( 'NONE',  ( -3.491481338843133355E-15, 1.224646799147353454E-16, -1.000000000000000000 ) ) ;
#246 = DIRECTION ( 'NONE',  ( -2.382254525458708792E-15, -0.7071067811865495711, -0.7071067811865455743 ) ) ;
#247 = DIRECTION ( 'NONE',  ( -3.491481338843133355E-15, 1.224646799147353454E-16, -1.000000000000000000 ) ) ;
#248 = DIRECTION ( 'NONE',  ( -3.491481338843133355E-15, 1.224646799147353454E-16, -1.000000000000000000 ) ) ;
#249 = CARTESIAN_POINT ( 'NONE',  ( 0.0000000000000000000, 0.0000000000000000000, 0.0000000000000000000 ) ) ;
#250 = DIRECTION ( 'NONE',  ( -4.275831445896959482E-31, -1.000000000000000000, -1.224646799147353454E-16 ) ) ;
#251 = CYLINDRICAL_SURFACE ( 'NONE', #252, 4.599999999999991651 ) ;
#252 = AXIS2_PLACEMENT_3D ( 'NONE', #97, #48, #332 ) ;
#253 = DIRECTION ( 'NONE',  ( 4.275831445896959482E-31, 1.000000000000000000, 1.224646799147353454E-16 ) ) ;
#254 = DIRECTION ( 'NONE',  ( -3.491481338843133355E-15, 1.224646799147353454E-16, -1.000000000000000000 ) ) ;
#255 = MANIFOLD_SOLID_BREP ( 'Corps-Déplacer/Copier1[1]', #271 ) ;
#256 = DIRECTION ( 'NONE',  ( -3.491481338843133355E-15, 1.224646799147353454E-16, -1.000000000000000000 ) ) ;
#257 = CC_DESIGN_PERSON_AND_ORGANIZATION_ASSIGNMENT ( #128, #241, ( #329 ) ) ;
#258 = CIRCLE ( 'NONE', #110, 4.599999999999992539 ) ;
#259 = LOCAL_TIME ( 9, 55, 30.00000000000000000, #1 ) ;
#260 = CALENDAR_DATE ( 2021, 3, 9 ) ;
#261 = PERSON_AND_ORGANIZATION ( #217, #92 ) ;
#262 = VERTEX_POINT ( 'NONE', #20 ) ;
#263 = COORDINATED_UNIVERSAL_TIME_OFFSET ( 1, 0, .AHEAD. ) ;
#264 = ORIENTED_EDGE ( 'NONE', *, *, #145, .F. ) ;
#265 = ADVANCED_FACE ( 'NONE', ( #279 ), #281, .T. ) ;
#266 = AXIS2_PLACEMENT_3D ( 'NONE', #148, #124, #175 ) ;
#267 = PERSON_AND_ORGANIZATION_ROLE ( 'creator' ) ;
#268 = ORIENTED_EDGE ( 'NONE', *, *, #25, .T. ) ;
#269 = ORIENTED_EDGE ( 'NONE', *, *, #165, .F. ) ;
#270 = DIRECTION ( 'NONE',  ( 0.0000000000000000000, 1.000000000000000000, 0.0000000000000000000 ) ) ;
#271 = CLOSED_SHELL ( 'NONE', ( #79, #134, #215, #265, #322, #46 ) ) ;
#272 = CARTESIAN_POINT ( 'NONE',  ( 9.650310737470201455E-15, -3.384873355598705495E-16, 2.763958847526801765 ) ) ;
#273 = DIRECTION ( 'NONE',  ( -3.491481338843133355E-15, 1.224646799147353454E-16, -1.000000000000000000 ) ) ;
#274 = LINE ( 'NONE', #39, #202 ) ;
#275 = AXIS2_PLACEMENT_3D ( 'NONE', #147, #299, #142 ) ;
#276 = AXIS2_PLACEMENT_3D ( 'NONE', #227, #330, #96 ) ;
#277 = CARTESIAN_POINT ( 'NONE',  ( 1.012529588264508673E-13, 4.599999999999989875, 29.00000000000000000 ) ) ;
#278 = DIRECTION ( 'NONE',  ( -3.491481338843133355E-15, 1.224646799147353454E-16, -1.000000000000000000 ) ) ;
#279 = FACE_OUTER_BOUND ( 'NONE', #81, .T. ) ;
#280 = LOCAL_TIME ( 9, 55, 30.00000000000000000, #32 ) ;
#281 = CYLINDRICAL_SURFACE ( 'NONE', #283, 4.599999999999996092 ) ;
#282 = DIRECTION ( 'NONE',  ( -3.349443381543026414E-31, -1.000000000000000000, -9.427844978134842387E-17 ) ) ;
#283 = AXIS2_PLACEMENT_3D ( 'NONE', #74, #278, #253 ) ;
#284 = SHAPE_DEFINITION_REPRESENTATION ( #65, #306 ) ;
#285 = ORIENTED_EDGE ( 'NONE', *, *, #173, .F. ) ;
#286 = PERSON_AND_ORGANIZATION ( #217, #92 ) ;
#287 = DIRECTION ( 'NONE',  ( -4.275831445896959482E-31, -1.000000000000000000, -1.224646799147353454E-16 ) ) ;
#288 = APPROVAL_ROLE ( '' ) ;
#289 = ORIENTED_EDGE ( 'NONE', *, *, #335, .T. ) ;
#290 = ADVANCED_FACE ( 'NONE', ( #204 ), #251, .T. ) ;
#291 = CIRCLE ( 'NONE', #171, 4.599999999999999645 ) ;
#292 = ORIENTED_EDGE ( 'NONE', *, *, #77, .T. ) ;
#293 = APPROVAL ( #155, 'UNSPECIFIED' ) ;
#294 = ORIENTED_EDGE ( 'NONE', *, *, #12, .F. ) ;
#295 = CARTESIAN_POINT ( 'NONE',  ( 2.904912473917487456E-13, -1.018906136890598294E-14, 83.20000000000001705 ) ) ;
#296 = LOCAL_TIME ( 9, 55, 30.00000000000000000, #30 ) ;
#297 = CARTESIAN_POINT ( 'NONE',  ( 1.021364826507798534E-14, 4.599999999999989875, 2.763958847526802209 ) ) ;
#298 = APPLICATION_CONTEXT ( 'configuration controlled 3d designs of mechanical parts and assemblies' ) ;
#299 = DIRECTION ( 'NONE',  ( 3.491481338843133355E-15, -1.224646799147353454E-16, 1.000000000000000000 ) ) ;
#300 = CARTESIAN_POINT ( 'NONE',  ( 1.012529588264508673E-13, -3.551475717527324818E-15, 29.00000000000000000 ) ) ;
#301 = AXIS2_PLACEMENT_3D ( 'NONE', #295, #245, #163 ) ;
#302 = LINE ( 'NONE', #37, #189 ) ;
#303 = FACE_OUTER_BOUND ( 'NONE', #36, .T. ) ;
#304 = CARTESIAN_POINT ( 'NONE',  ( 9.650310737470199877E-15, -4.599999999999989875, 2.763958847526801321 ) ) ;
#305 =( NAMED_UNIT ( * ) SI_UNIT ( $, .STERADIAN. ) SOLID_ANGLE_UNIT ( ) );
#306 = ADVANCED_BREP_SHAPE_REPRESENTATION ( '59401', ( #255, #146, #276 ), #86 ) ;
#307 = EDGE_CURVE ( 'NONE', #331, #320, #151, .T. ) ;
#308 = PERSON_AND_ORGANIZATION ( #217, #92 ) ;
#309 = VERTEX_POINT ( 'NONE', #169 ) ;
#310 = CIRCLE ( 'NONE', #117, 3.799999999999999822 ) ;
#311 = AXIS2_PLACEMENT_3D ( 'NONE', #321, #247, #94 ) ;
#312 = APPROVAL_STATUS ( 'not_yet_approved' ) ;
#313 = CARTESIAN_POINT ( 'NONE',  ( 9.650310737470199877E-15, -4.599999999999989875, 2.763958847526801321 ) ) ;
#314 = APPROVAL_DATE_TIME ( #207, #120 ) ;
#315 = ORIENTED_EDGE ( 'NONE', *, *, #337, .F. ) ;
#316 = APPLICATION_CONTEXT ( 'configuration controlled 3d designs of mechanical parts and assemblies' ) ;
#317 = DATE_TIME_ROLE ( 'creation_date' ) ;
#318 = EDGE_LOOP ( 'NONE', ( #9, #294 ) ) ;
#319 = LOCAL_TIME ( 9, 55, 30.00000000000000000, #263 ) ;
#320 = VERTEX_POINT ( 'NONE', #125 ) ;
#321 = CARTESIAN_POINT ( 'NONE',  ( 1.012529588264508673E-13, -3.551475717527324818E-15, 29.00000000000000000 ) ) ;
#322 = ADVANCED_FACE ( 'NONE', ( #50 ), #334, .T. ) ;
#323 = CARTESIAN_POINT ( 'NONE',  ( 2.932844324628232018E-13, 2.849543587057514676E-32, 84.00000000000000000 ) ) ;
#324 = CIRCLE ( 'NONE', #232, 4.599999999999992539 ) ;
#325 = DIRECTION ( 'NONE',  ( -3.491481338843133355E-15, 1.224646799147353454E-16, -1.000000000000000000 ) ) ;
#326 = ADVANCED_FACE ( 'NONE', ( #303 ), #144, .T. ) ;
#327 = FACE_OUTER_BOUND ( 'NONE', #208, .T. ) ;
#328 = CYLINDRICAL_SURFACE ( 'NONE', #43, 4.599999999999996092 ) ;
#329 = PRODUCT_DEFINITION_FORMATION_WITH_SPECIFIED_SOURCE ( 'ANY', '', #14, .NOT_KNOWN. ) ;
#330 = DIRECTION ( 'NONE',  ( 0.0000000000000000000, 0.0000000000000000000, 1.000000000000000000 ) ) ;
#331 = VERTEX_POINT ( 'NONE', #22 ) ;
#332 = DIRECTION ( 'NONE',  ( 4.275831445896958607E-31, 1.000000000000000000, 1.224646799147353454E-16 ) ) ;
#333 = AXIS2_PLACEMENT_3D ( 'NONE', #83, #160, #270 ) ;
#334 = CONICAL_SURFACE ( 'NONE', #266, 3.799999999999999822, 0.7853981633974512766 ) ;
#335 = EDGE_CURVE ( 'NONE', #62, #7, #123, .T. ) ;
#336 = MECHANICAL_CONTEXT ( 'NONE', #298, 'mechanical' ) ;
#337 = EDGE_CURVE ( 'NONE', #154, #7, #139, .T. ) ;
ENDSEC;
END-ISO-10303-21;
