ISO-10303-21;
HEADER;
FILE_DESCRIPTION (( 'STEP AP203' ),
    '1' );
FILE_NAME ('59399.step',
    '2021-09-03T07:55:24',
    ( '' ),
    ( '' ),
    'SwSTEP 2.0',
    'SolidWorks 2019',
    '' );
FILE_SCHEMA (( 'CONFIG_CONTROL_DESIGN' ));
ENDSEC;

DATA;
#1 = CARTESIAN_POINT ( 'NONE',  ( 9.769576601378933106E-15, 4.399999999999987033, 2.643786723721286425 ) ) ;
#2 = APPLICATION_CONTEXT ( 'configuration controlled 3d designs of mechanical parts and assemblies' ) ;
#3 = DIRECTION ( 'NONE',  ( 0.0000000000000000000, 1.000000000000000000, 0.0000000000000000000 ) ) ;
#4 = DIRECTION ( 'NONE',  ( -3.501690807976802651E-31, -1.000000000000000000, -9.856383386231887177E-17 ) ) ;
#5 = DIRECTION ( 'NONE',  ( -3.491481338843133355E-15, 1.224646799147353454E-16, -1.000000000000000000 ) ) ;
#6 = EDGE_CURVE ( 'NONE', #69, #151, #152, .T. ) ;
#7 = CYLINDRICAL_SURFACE ( 'NONE', #316, 4.399999999999994138 ) ;
#8 = PERSON_AND_ORGANIZATION_ROLE ( 'creator' ) ;
#9 = AXIS2_PLACEMENT_3D ( 'NONE', #282, #304, #4 ) ;
#10 = CYLINDRICAL_SURFACE ( 'NONE', #118, 4.399999999999988809 ) ;
#11 = EDGE_LOOP ( 'NONE', ( #215, #19 ) ) ;
#12 = DIRECTION ( 'NONE',  ( 4.275831445896959482E-31, 1.000000000000000000, 1.224646799147353454E-16 ) ) ;
#13 = CC_DESIGN_PERSON_AND_ORGANIZATION_ASSIGNMENT ( #169, #8, ( #55 ) ) ;
#14 = APPROVAL_STATUS ( 'not_yet_approved' ) ;
#15 = ORGANIZATION ( 'UNSPECIFIED', 'UNSPECIFIED', '' ) ;
#16 = DIRECTION ( 'NONE',  ( -3.491481338843133355E-15, 1.224646799147353454E-16, -1.000000000000000000 ) ) ;
#17 = ORIENTED_EDGE ( 'NONE', *, *, #207, .T. ) ;
#18 = VERTEX_POINT ( 'NONE', #126 ) ;
#19 = ORIENTED_EDGE ( 'NONE', *, *, #88, .T. ) ;
#20 = CONICAL_SURFACE ( 'NONE', #9, 4.399999999999987033, 1.029744258676649871 ) ;
#21 = ORIENTED_EDGE ( 'NONE', *, *, #285, .F. ) ;
#22 = ORIENTED_EDGE ( 'NONE', *, *, #79, .T. ) ;
#23 = CC_DESIGN_PERSON_AND_ORGANIZATION_ASSIGNMENT ( #202, #300, ( #323 ) ) ;
#24 = FACE_OUTER_BOUND ( 'NONE', #234, .T. ) ;
#25 = CIRCLE ( 'NONE', #226, 3.599999999999997424 ) ;
#26 = ORIENTED_EDGE ( 'NONE', *, *, #257, .T. ) ;
#27 = DIRECTION ( 'NONE',  ( 3.491481338843133355E-15, -1.224646799147353454E-16, 1.000000000000000000 ) ) ;
#28 = DIRECTION ( 'NONE',  ( -2.382254525458707609E-15, -0.7071067811865497932, -0.7071067811865453523 ) ) ;
#29 = DIRECTION ( 'NONE',  ( -3.491481338843133355E-15, 1.224646799147353454E-16, -1.000000000000000000 ) ) ;
#30 = AXIS2_PLACEMENT_3D ( 'NONE', #197, #133, #237 ) ;
#31 = CARTESIAN_POINT ( 'NONE',  ( 1.012529588264508673E-13, -3.551475717527324818E-15, 29.00000000000000000 ) ) ;
#32 = PERSON_AND_ORGANIZATION ( #110, #15 ) ;
#33 = ORIENTED_EDGE ( 'NONE', *, *, #260, .F. ) ;
#34 = AXIS2_PLACEMENT_3D ( 'NONE', #295, #74, #288 ) ;
#35 = DATE_AND_TIME ( #296, #246 ) ;
#36 = PERSON_AND_ORGANIZATION ( #110, #15 ) ;
#37 = VERTEX_POINT ( 'NONE', #283 ) ;
#38 = DATE_AND_TIME ( #227, #50 ) ;
#39 = LOCAL_TIME ( 9, 55, 24.00000000000000000, #280 ) ;
#40 = ORIENTED_EDGE ( 'NONE', *, *, #207, .F. ) ;
#41 = ADVANCED_FACE ( 'NONE', ( #333 ), #269, .T. ) ;
#42 = ORIENTED_EDGE ( 'NONE', *, *, #232, .F. ) ;
#43 = DATE_AND_TIME ( #204, #39 ) ;
#44 = ORIENTED_EDGE ( 'NONE', *, *, #156, .T. ) ;
#45 = APPROVAL ( #209, 'UNSPECIFIED' ) ;
#46 = VECTOR ( 'NONE', #231, 1000.000000000000000 ) ;
#47 = VERTEX_POINT ( 'NONE', #230 ) ;
#48 = DIRECTION ( 'NONE',  ( 0.0000000000000000000, 1.000000000000000000, 0.0000000000000000000 ) ) ;
#49 = EDGE_LOOP ( 'NONE', ( #17, #59, #252, #125 ) ) ;
#50 = LOCAL_TIME ( 9, 55, 24.00000000000000000, #58 ) ;
#51 = DIRECTION ( 'NONE',  ( 0.0000000000000000000, 1.000000000000000000, 0.0000000000000000000 ) ) ;
#52 = DIRECTION ( 'NONE',  ( -4.275831445896959482E-31, -1.000000000000000000, -1.224646799147353454E-16 ) ) ;
#53 = DIRECTION ( 'NONE',  ( -3.491481338843133355E-15, 1.224646799147353454E-16, -1.000000000000000000 ) ) ;
#54 = CARTESIAN_POINT ( 'NONE',  ( 2.932844324628232018E-13, 3.599999999999986766, 84.00000000000000000 ) ) ;
#55 = PRODUCT_DEFINITION_FORMATION_WITH_SPECIFIED_SOURCE ( 'ANY', '', #165, .NOT_KNOWN. ) ;
#56 = ADVANCED_FACE ( 'NONE', ( #97 ), #328, .T. ) ;
#57 = DIRECTION ( 'NONE',  ( 1.903218546456021928E-15, 0.8571673007021098911, 0.5150380749100583744 ) ) ;
#58 = COORDINATED_UNIVERSAL_TIME_OFFSET ( 1, 0, .AHEAD. ) ;
#59 = ORIENTED_EDGE ( 'NONE', *, *, #6, .T. ) ;
#60 = APPLICATION_PROTOCOL_DEFINITION ( 'international standard', 'config_control_design', 1994, #2 ) ;
#61 = AXIS2_PLACEMENT_3D ( 'NONE', #243, #290, #314 ) ;
#62 = CARTESIAN_POINT ( 'NONE',  ( 5.388445916248328375E-16, -4.399999999999994138, -5.388445916248366832E-16 ) ) ;
#63 = COORDINATED_UNIVERSAL_TIME_OFFSET ( 1, 0, .AHEAD. ) ;
#64 = ADVANCED_FACE ( 'NONE', ( #24 ), #249, .T. ) ;
#65 = AXIS2_PLACEMENT_3D ( 'NONE', #291, #29, #80 ) ;
#66 = CARTESIAN_POINT ( 'NONE',  ( 1.012529588264508673E-13, 3.299471521856075790E-32, 29.00000000000000000 ) ) ;
#67 = DIRECTION ( 'NONE',  ( 3.491481338843133355E-15, -1.224646799147353454E-16, 1.000000000000000000 ) ) ;
#68 = EDGE_CURVE ( 'NONE', #225, #210, #166, .T. ) ;
#69 = VERTEX_POINT ( 'NONE', #122 ) ;
#70 = PERSON_AND_ORGANIZATION ( #110, #15 ) ;
#71 = LINE ( 'NONE', #259, #46 ) ;
#72 = CC_DESIGN_PERSON_AND_ORGANIZATION_ASSIGNMENT ( #124, #91, ( #111 ) ) ;
#73 = CARTESIAN_POINT ( 'NONE',  ( 1.012529588264508673E-13, 4.399999999999987033, 29.00000000000000000 ) ) ;
#74 = DIRECTION ( 'NONE',  ( -3.491481338843133355E-15, 1.224646799147353454E-16, -1.000000000000000000 ) ) ;
#75 = FACE_OUTER_BOUND ( 'NONE', #11, .T. ) ;
#76 = CYLINDRICAL_SURFACE ( 'NONE', #65, 4.399999999999994138 ) ;
#77 = FACE_OUTER_BOUND ( 'NONE', #253, .T. ) ;
#78 = EDGE_CURVE ( 'NONE', #47, #174, #71, .T. ) ;
#79 = EDGE_CURVE ( 'NONE', #210, #225, #123, .T. ) ;
#80 = DIRECTION ( 'NONE',  ( 4.275831445896959482E-31, 1.000000000000000000, 1.224646799147353454E-16 ) ) ;
#81 = AXIS2_PLACEMENT_3D ( 'NONE', #116, #177, #275 ) ;
#82 = PERSON_AND_ORGANIZATION_ROLE ( 'design_owner' ) ;
#83 = CARTESIAN_POINT ( 'NONE',  ( 0.0000000000000000000, 0.0000000000000000000, 0.0000000000000000000 ) ) ;
#84 = ORIENTED_EDGE ( 'NONE', *, *, #68, .T. ) ;
#85 =( NAMED_UNIT ( * ) SI_UNIT ( $, .STERADIAN. ) SOLID_ANGLE_UNIT ( ) );
#86 = ORIENTED_EDGE ( 'NONE', *, *, #88, .F. ) ;
#87 = CIRCLE ( 'NONE', #154, 3.599999999999997424 ) ;
#88 = EDGE_CURVE ( 'NONE', #18, #90, #149, .T. ) ;
#89 = CARTESIAN_POINT ( 'NONE',  ( 2.932844324628232018E-13, 2.699567608791327273E-32, 84.00000000000000000 ) ) ;
#90 = VERTEX_POINT ( 'NONE', #73 ) ;
#91 = PERSON_AND_ORGANIZATION_ROLE ( 'classification_officer' ) ;
#92 = CARTESIAN_POINT ( 'NONE',  ( 5.388445916248322459E-16, -4.399999999999988809, -5.388445916248359929E-16 ) ) ;
#93 = APPROVAL_PERSON_ORGANIZATION ( #70, #45, #183 ) ;
#94 = FACE_OUTER_BOUND ( 'NONE', #180, .T. ) ;
#95 = DIRECTION ( 'NONE',  ( -3.491481338843133355E-15, 1.224646799147353454E-16, -1.000000000000000000 ) ) ;
#96 = APPROVAL_DATE_TIME ( #43, #45 ) ;
#97 = FACE_OUTER_BOUND ( 'NONE', #276, .T. ) ;
#98 = CC_DESIGN_APPROVAL ( #334, ( #55 ) ) ;
#99 = DATE_TIME_ROLE ( 'classification_date' ) ;
#100 = DIRECTION ( 'NONE',  ( -3.491481338843133355E-15, 1.224646799147353454E-16, -1.000000000000000000 ) ) ;
#101 = CARTESIAN_POINT ( 'NONE',  ( 2.932844324628232018E-13, -1.028703311283776980E-14, 84.00000000000000000 ) ) ;
#102 = EDGE_CURVE ( 'NONE', #210, #90, #287, .T. ) ;
#103 = ADVANCED_FACE ( 'NONE', ( #94 ), #20, .T. ) ;
#104 = CARTESIAN_POINT ( 'NONE',  ( 2.937253053105162585E-13, -3.600000000000007638, 84.00000000000000000 ) ) ;
#105 = AXIS2_PLACEMENT_3D ( 'NONE', #217, #27, #52 ) ;
#106 = DIRECTION ( 'NONE',  ( -3.491481338843133355E-15, 1.224646799147353454E-16, -1.000000000000000000 ) ) ;
#107 = CC_DESIGN_PERSON_AND_ORGANIZATION_ASSIGNMENT ( #36, #82, ( #165 ) ) ;
#108 = FACE_OUTER_BOUND ( 'NONE', #327, .T. ) ;
#109 = CARTESIAN_POINT ( 'NONE',  ( 2.904912473917487456E-13, 4.399999999999987033, 83.20000000000001705 ) ) ;
#110 = PERSON ( 'UNSPECIFIED', 'UNSPECIFIED', 'UNSPECIFIED', ('UNSPECIFIED'), ('UNSPECIFIED'), ('UNSPECIFIED') ) ;
#111 = SECURITY_CLASSIFICATION ( '', '', #188 ) ;
#112 = FACE_OUTER_BOUND ( 'NONE', #262, .T. ) ;
#113 = FACE_OUTER_BOUND ( 'NONE', #49, .T. ) ;
#114 = ORIENTED_EDGE ( 'NONE', *, *, #257, .F. ) ;
#115 = DIRECTION ( 'NONE',  ( -3.491481338843133355E-15, 1.224646799147353454E-16, -1.000000000000000000 ) ) ;
#116 = CARTESIAN_POINT ( 'NONE',  ( 0.0000000000000000000, 0.0000000000000000000, 0.0000000000000000000 ) ) ;
#117 = AXIS2_PLACEMENT_3D ( 'NONE', #305, #155, #208 ) ;
#118 = AXIS2_PLACEMENT_3D ( 'NONE', #83, #16, #12 ) ;
#119 = PERSON_AND_ORGANIZATION ( #110, #15 ) ;
#120 = ORIENTED_EDGE ( 'NONE', *, *, #102, .F. ) ;
#121 = ORIENTED_EDGE ( 'NONE', *, *, #285, .T. ) ;
#122 = CARTESIAN_POINT ( 'NONE',  ( 5.578069000972725963E-14, -4.399999999999995026, 29.00000000000000000 ) ) ;
#123 = CIRCLE ( 'NONE', #236, 4.399999999999997691 ) ;
#124 = PERSON_AND_ORGANIZATION ( #110, #15 ) ;
#125 = ORIENTED_EDGE ( 'NONE', *, *, #78, .F. ) ;
#126 = CARTESIAN_POINT ( 'NONE',  ( 1.964109477007245742E-13, -4.399999999999994138, 29.00000000000000000 ) ) ;
#127 = EDGE_CURVE ( 'NONE', #69, #47, #218, .T. ) ;
#128 = DATE_AND_TIME ( #332, #160 ) ;
#129 = DIRECTION ( 'NONE',  ( -4.275831445896959482E-31, -1.000000000000000000, -1.224646799147353454E-16 ) ) ;
#130 = VECTOR ( 'NONE', #311, 1000.000000000000000 ) ;
#131 = CIRCLE ( 'NONE', #294, 4.399999999999987033 ) ;
#132 = ADVANCED_FACE ( 'NONE', ( #108 ), #216, .T. ) ;
#133 = DIRECTION ( 'NONE',  ( -3.491481338843133355E-15, 1.224646799147353454E-16, -1.000000000000000000 ) ) ;
#134 = DIRECTION ( 'NONE',  ( -3.491481338843133355E-15, 1.224646799147353454E-16, -1.000000000000000000 ) ) ;
#135 = CC_DESIGN_DATE_AND_TIME_ASSIGNMENT ( #128, #99, ( #111 ) ) ;
#136 = LINE ( 'NONE', #162, #130 ) ;
#137 = ADVANCED_FACE ( 'NONE', ( #220 ), #241, .T. ) ;
#138 = CIRCLE ( 'NONE', #201, 4.399999999999990585 ) ;
#139 = CARTESIAN_POINT ( 'NONE',  ( 9.230732009754095930E-15, -3.237704948833541385E-16, 2.643786723721285981 ) ) ;
#140 = DIRECTION ( 'NONE',  ( -3.491481338843133355E-15, 1.224646799147353454E-16, -1.000000000000000000 ) ) ;
#141 = CALENDAR_DATE ( 2021, 3, 9 ) ;
#142 = CC_DESIGN_SECURITY_CLASSIFICATION ( #111, ( #55 ) ) ;
#143 = ORIENTED_EDGE ( 'NONE', *, *, #102, .T. ) ;
#144 = PERSON_AND_ORGANIZATION_ROLE ( 'design_supplier' ) ;
#145 = ORIENTED_EDGE ( 'NONE', *, *, #281, .T. ) ;
#146 =( LENGTH_UNIT ( ) NAMED_UNIT ( * ) SI_UNIT ( .MILLI., .METRE. ) );
#147 = MANIFOLD_SOLID_BREP ( 'Corps-Déplacer/Copier1[2]', #200 ) ;
#148 = DATE_TIME_ROLE ( 'creation_date' ) ;
#149 = CIRCLE ( 'NONE', #171, 4.399999999999990585 ) ;
#150 = APPLICATION_CONTEXT ( 'configuration controlled 3d designs of mechanical parts and assemblies' ) ;
#151 = VERTEX_POINT ( 'NONE', #272 ) ;
#152 = LINE ( 'NONE', #92, #185 ) ;
#153 = ORIENTED_EDGE ( 'NONE', *, *, #127, .F. ) ;
#154 = AXIS2_PLACEMENT_3D ( 'NONE', #191, #5, #293 ) ;
#155 = DIRECTION ( 'NONE',  ( -3.491481338843133355E-15, 1.224646799147353454E-16, -1.000000000000000000 ) ) ;
#156 = EDGE_CURVE ( 'NONE', #174, #151, #131, .T. ) ;
#157 = UNCERTAINTY_MEASURE_WITH_UNIT (LENGTH_MEASURE( 1.000000000000000082E-05 ), #146, 'distance_accuracy_value', 'NONE');
#158 = ORIENTED_EDGE ( 'NONE', *, *, #173, .F. ) ;
#159 = ORIENTED_EDGE ( 'NONE', *, *, #78, .T. ) ;
#160 = LOCAL_TIME ( 9, 55, 24.00000000000000000, #335 ) ;
#161 = DESIGN_CONTEXT ( 'detailed design', #150, 'design' ) ;
#162 = CARTESIAN_POINT ( 'NONE',  ( 9.230732009754094352E-15, -4.399999999999987033, 2.643786723721285536 ) ) ;
#163 = CARTESIAN_POINT ( 'NONE',  ( 1.012529588264508673E-13, -3.551475717527324818E-15, 29.00000000000000000 ) ) ;
#164 = DIRECTION ( 'NONE',  ( 0.0000000000000000000, 1.000000000000000000, 0.0000000000000000000 ) ) ;
#165 = PRODUCT ( '59399', '59399', '', ( #273 ) ) ;
#166 = CIRCLE ( 'NONE', #258, 4.399999999999997691 ) ;
#167 = DIRECTION ( 'NONE',  ( -2.468850131082256666E-15, 0.7071067811865500152, -0.7071067811865451302 ) ) ;
#168 = LINE ( 'NONE', #54, #186 ) ;
#169 = PERSON_AND_ORGANIZATION ( #110, #15 ) ;
#170 = VERTEX_POINT ( 'NONE', #266 ) ;
#171 = AXIS2_PLACEMENT_3D ( 'NONE', #235, #100, #309 ) ;
#172 = DATE_AND_TIME ( #141, #214 ) ;
#173 = EDGE_CURVE ( 'NONE', #90, #18, #138, .T. ) ;
#174 = VERTEX_POINT ( 'NONE', #1 ) ;
#175 = DIRECTION ( 'NONE',  ( 4.275831445896959482E-31, 1.000000000000000000, 1.224646799147353454E-16 ) ) ;
#176 = ADVANCED_FACE ( 'NONE', ( #75 ), #193, .F. ) ;
#177 = DIRECTION ( 'NONE',  ( 0.0000000000000000000, 0.0000000000000000000, 1.000000000000000000 ) ) ;
#178 = APPROVAL_ROLE ( '' ) ;
#179 = CIRCLE ( 'NONE', #30, 4.399999999999987033 ) ;
#180 = EDGE_LOOP ( 'NONE', ( #233, #229, #145 ) ) ;
#181 = ORIENTED_EDGE ( 'NONE', *, *, #320, .F. ) ;
#182 = DIRECTION ( 'NONE',  ( -3.491481338843133355E-15, 1.224646799147353454E-16, -1.000000000000000000 ) ) ;
#183 = APPROVAL_ROLE ( '' ) ;
#184 = VERTEX_POINT ( 'NONE', #268 ) ;
#185 = VECTOR ( 'NONE', #302, 1000.000000000000000 ) ;
#186 = VECTOR ( 'NONE', #167, 1000.000000000000114 ) ;
#187 = CC_DESIGN_DATE_AND_TIME_ASSIGNMENT ( #172, #148, ( #323 ) ) ;
#188 = SECURITY_CLASSIFICATION_LEVEL ( 'unclassified' ) ;
#189 = CARTESIAN_POINT ( 'NONE',  ( 2.904912473917487456E-13, -1.018906136890598294E-14, 83.20000000000001705 ) ) ;
#190 = DIRECTION ( 'NONE',  ( -3.491481338843133355E-15, 1.224646799147353454E-16, -1.000000000000000000 ) ) ;
#191 = CARTESIAN_POINT ( 'NONE',  ( 2.932844324628232018E-13, -1.028703311283776980E-14, 84.00000000000000000 ) ) ;
#192 = APPROVAL_PERSON_ORGANIZATION ( #119, #211, #298 ) ;
#193 = PLANE ( 'NONE',  #105 ) ;
#194 = DIRECTION ( 'NONE',  ( -3.491481338843133355E-15, 1.224646799147353454E-16, -1.000000000000000000 ) ) ;
#195 = CARTESIAN_POINT ( 'NONE',  ( 9.769576601378933106E-15, 4.399999999999987033, 2.643786723721286425 ) ) ;
#196 = AXIS2_PLACEMENT_3D ( 'NONE', #213, #67, #279 ) ;
#197 = CARTESIAN_POINT ( 'NONE',  ( 9.230732009754095930E-15, -3.237704948833541385E-16, 2.643786723721285981 ) ) ;
#198 = LINE ( 'NONE', #62, #336 ) ;
#199 = ORIENTED_EDGE ( 'NONE', *, *, #281, .F. ) ;
#200 = CLOSED_SHELL ( 'NONE', ( #286, #64, #103, #132, #56 ) ) ;
#201 = AXIS2_PLACEMENT_3D ( 'NONE', #31, #194, #164 ) ;
#202 = PERSON_AND_ORGANIZATION ( #110, #15 ) ;
#203 = ORIENTED_EDGE ( 'NONE', *, *, #212, .F. ) ;
#204 = CALENDAR_DATE ( 2021, 3, 9 ) ;
#205 = AXIS2_PLACEMENT_3D ( 'NONE', #265, #140, #51 ) ;
#206 = EDGE_LOOP ( 'NONE', ( #203, #26, #224, #319 ) ) ;
#207 = EDGE_CURVE ( 'NONE', #47, #69, #329, .T. ) ;
#208 = DIRECTION ( 'NONE',  ( 0.0000000000000000000, 1.000000000000000000, 0.0000000000000000000 ) ) ;
#209 = APPROVAL_STATUS ( 'not_yet_approved' ) ;
#210 = VERTEX_POINT ( 'NONE', #109 ) ;
#211 = APPROVAL ( #14, 'UNSPECIFIED' ) ;
#212 = EDGE_CURVE ( 'NONE', #37, #225, #310, .T. ) ;
#213 = CARTESIAN_POINT ( 'NONE',  ( 9.230732009754095930E-15, -3.237704948833541385E-16, 2.643786723721285981 ) ) ;
#214 = LOCAL_TIME ( 9, 55, 24.00000000000000000, #63 ) ;
#215 = ORIENTED_EDGE ( 'NONE', *, *, #173, .T. ) ;
#216 = CYLINDRICAL_SURFACE ( 'NONE', #61, 4.399999999999988809 ) ;
#217 = CARTESIAN_POINT ( 'NONE',  ( 1.012529588264508673E-13, 3.299471521856075790E-32, 29.00000000000000000 ) ) ;
#218 = CIRCLE ( 'NONE', #222, 4.399999999999990585 ) ;
#219 = DIRECTION ( 'NONE',  ( 3.501690807976802651E-31, 1.000000000000000000, 9.856383386231887177E-17 ) ) ;
#220 = FACE_OUTER_BOUND ( 'NONE', #337, .T. ) ;
#221 = CARTESIAN_POINT ( 'NONE',  ( 0.0000000000000000000, 0.0000000000000000000, 0.0000000000000000000 ) ) ;
#222 = AXIS2_PLACEMENT_3D ( 'NONE', #163, #106, #239 ) ;
#223 = PLANE ( 'NONE',  #312 ) ;
#224 = ORIENTED_EDGE ( 'NONE', *, *, #260, .T. ) ;
#225 = VERTEX_POINT ( 'NONE', #271 ) ;
#226 = AXIS2_PLACEMENT_3D ( 'NONE', #101, #238, #3 ) ;
#227 = CALENDAR_DATE ( 2021, 3, 9 ) ;
#228 = APPROVAL_DATE_TIME ( #35, #334 ) ;
#229 = ORIENTED_EDGE ( 'NONE', *, *, #232, .T. ) ;
#230 = CARTESIAN_POINT ( 'NONE',  ( 1.012529588264508673E-13, 4.399999999999987033, 29.00000000000000000 ) ) ;
#231 = DIRECTION ( 'NONE',  ( -3.491481338843133355E-15, 1.224646799147353454E-16, -1.000000000000000000 ) ) ;
#232 = EDGE_CURVE ( 'NONE', #184, #151, #136, .T. ) ;
#233 = ORIENTED_EDGE ( 'NONE', *, *, #242, .F. ) ;
#234 = EDGE_LOOP ( 'NONE', ( #42, #297, #44 ) ) ;
#235 = CARTESIAN_POINT ( 'NONE',  ( 1.012529588264508673E-13, -3.551475717527324818E-15, 29.00000000000000000 ) ) ;
#236 = AXIS2_PLACEMENT_3D ( 'NONE', #263, #95, #48 ) ;
#237 = DIRECTION ( 'NONE',  ( 3.501690807976802651E-31, 1.000000000000000000, 9.856383386231887177E-17 ) ) ;
#238 = DIRECTION ( 'NONE',  ( -3.491481338843133355E-15, 1.224646799147353454E-16, -1.000000000000000000 ) ) ;
#239 = DIRECTION ( 'NONE',  ( 0.0000000000000000000, 1.000000000000000000, 0.0000000000000000000 ) ) ;
#240 = AXIS2_PLACEMENT_3D ( 'NONE', #66, #331, #129 ) ;
#241 = CONICAL_SURFACE ( 'NONE', #34, 3.599999999999997424, 0.7853981633974516097 ) ;
#242 = EDGE_CURVE ( 'NONE', #184, #174, #313, .T. ) ;
#243 = CARTESIAN_POINT ( 'NONE',  ( 0.0000000000000000000, 0.0000000000000000000, 0.0000000000000000000 ) ) ;
#244 = FACE_OUTER_BOUND ( 'NONE', #322, .T. ) ;
#245 = PERSON_AND_ORGANIZATION ( #110, #15 ) ;
#246 = LOCAL_TIME ( 9, 55, 24.00000000000000000, #274 ) ;
#247 = ORIENTED_EDGE ( 'NONE', *, *, #320, .T. ) ;
#248 = APPLICATION_PROTOCOL_DEFINITION ( 'international standard', 'config_control_design', 1994, #150 ) ;
#249 = CONICAL_SURFACE ( 'NONE', #196, 4.399999999999987033, 1.029744258676649871 ) ;
#250 = APPROVAL_PERSON_ORGANIZATION ( #245, #334, #178 ) ;
#251 = APPROVAL_STATUS ( 'not_yet_approved' ) ;
#252 = ORIENTED_EDGE ( 'NONE', *, *, #156, .F. ) ;
#253 = EDGE_LOOP ( 'NONE', ( #22, #247, #158, #120 ) ) ;
#254 = MANIFOLD_SOLID_BREP ( 'Corps-Déplacer/Copier1[1]', #277 ) ;
#255 = ADVANCED_FACE ( 'NONE', ( #77 ), #76, .T. ) ;
#256 = ORIENTED_EDGE ( 'NONE', *, *, #127, .T. ) ;
#257 = EDGE_CURVE ( 'NONE', #37, #170, #87, .T. ) ;
#258 = AXIS2_PLACEMENT_3D ( 'NONE', #189, #190, #308 ) ;
#259 = CARTESIAN_POINT ( 'NONE',  ( 1.881365836194657303E-30, 4.399999999999988809, 5.388445916248341194E-16 ) ) ;
#260 = EDGE_CURVE ( 'NONE', #170, #210, #168, .T. ) ;
#261 = SHAPE_DEFINITION_REPRESENTATION ( #303, #326 ) ;
#262 = EDGE_LOOP ( 'NONE', ( #21, #114 ) ) ;
#263 = CARTESIAN_POINT ( 'NONE',  ( 2.904912473917487456E-13, -1.018906136890598294E-14, 83.20000000000001705 ) ) ;
#264 = ORIENTED_EDGE ( 'NONE', *, *, #79, .F. ) ;
#265 = CARTESIAN_POINT ( 'NONE',  ( 1.012529588264508673E-13, -3.551475717527324818E-15, 29.00000000000000000 ) ) ;
#266 = CARTESIAN_POINT ( 'NONE',  ( 2.932844324628232018E-13, 3.599999999999986766, 84.00000000000000000 ) ) ;
#267 = PRODUCT_RELATED_PRODUCT_CATEGORY ( 'detail', '', ( #165 ) ) ;
#268 = CARTESIAN_POINT ( 'NONE',  ( 0.0000000000000000000, 0.0000000000000000000, 0.0000000000000000000 ) ) ;
#269 = CONICAL_SURFACE ( 'NONE', #117, 3.599999999999997424, 0.7853981633974516097 ) ;
#270 = ADVANCED_FACE ( 'NONE', ( #244 ), #7, .T. ) ;
#271 = CARTESIAN_POINT ( 'NONE',  ( 1.964109477007244733E-13, -4.400000000000008349, 83.20000000000001705 ) ) ;
#272 = CARTESIAN_POINT ( 'NONE',  ( 9.230732009754094352E-15, -4.399999999999987033, 2.643786723721285536 ) ) ;
#273 = MECHANICAL_CONTEXT ( 'NONE', #2, 'mechanical' ) ;
#274 = COORDINATED_UNIVERSAL_TIME_OFFSET ( 1, 0, .AHEAD. ) ;
#275 = DIRECTION ( 'NONE',  ( 1.000000000000000000, 0.0000000000000000000, 0.0000000000000000000 ) ) ;
#276 = EDGE_LOOP ( 'NONE', ( #40, #153 ) ) ;
#277 = CLOSED_SHELL ( 'NONE', ( #137, #255, #176, #270, #41, #307 ) ) ;
#278 = ORIENTED_EDGE ( 'NONE', *, *, #6, .F. ) ;
#279 = DIRECTION ( 'NONE',  ( -3.501690807976802651E-31, -1.000000000000000000, -9.856383386231887177E-17 ) ) ;
#280 = COORDINATED_UNIVERSAL_TIME_OFFSET ( 1, 0, .AHEAD. ) ;
#281 = EDGE_CURVE ( 'NONE', #151, #174, #179, .T. ) ;
#282 = CARTESIAN_POINT ( 'NONE',  ( 9.230732009754095930E-15, -3.237704948833541385E-16, 2.643786723721285981 ) ) ;
#283 = CARTESIAN_POINT ( 'NONE',  ( 2.923776986469448639E-13, -3.600000000000007638, 84.00000000000000000 ) ) ;
#284 = ORIENTED_EDGE ( 'NONE', *, *, #212, .T. ) ;
#285 = EDGE_CURVE ( 'NONE', #170, #37, #25, .T. ) ;
#286 = ADVANCED_FACE ( 'NONE', ( #113 ), #10, .T. ) ;
#287 = LINE ( 'NONE', #330, #317 ) ;
#288 = DIRECTION ( 'NONE',  ( 0.0000000000000000000, 1.000000000000000000, 0.0000000000000000000 ) ) ;
#289 = CC_DESIGN_APPROVAL ( #45, ( #111 ) ) ;
#290 = DIRECTION ( 'NONE',  ( -3.491481338843133355E-15, 1.224646799147353454E-16, -1.000000000000000000 ) ) ;
#291 = CARTESIAN_POINT ( 'NONE',  ( 0.0000000000000000000, 0.0000000000000000000, 0.0000000000000000000 ) ) ;
#292 = CC_DESIGN_PERSON_AND_ORGANIZATION_ASSIGNMENT ( #32, #144, ( #55 ) ) ;
#293 = DIRECTION ( 'NONE',  ( 0.0000000000000000000, 1.000000000000000000, 0.0000000000000000000 ) ) ;
#294 = AXIS2_PLACEMENT_3D ( 'NONE', #139, #53, #219 ) ;
#295 = CARTESIAN_POINT ( 'NONE',  ( 2.932844324628232018E-13, -1.028703311283776980E-14, 84.00000000000000000 ) ) ;
#296 = CALENDAR_DATE ( 2021, 3, 9 ) ;
#297 = ORIENTED_EDGE ( 'NONE', *, *, #242, .T. ) ;
#298 = APPROVAL_ROLE ( '' ) ;
#299 = VECTOR ( 'NONE', #28, 1000.000000000000114 ) ;
#300 = PERSON_AND_ORGANIZATION_ROLE ( 'creator' ) ;
#301 = CC_DESIGN_APPROVAL ( #211, ( #323 ) ) ;
#302 = DIRECTION ( 'NONE',  ( -3.491481338843133355E-15, 1.224646799147353454E-16, -1.000000000000000000 ) ) ;
#303 = PRODUCT_DEFINITION_SHAPE ( 'NONE', 'NONE',  #323 ) ;
#304 = DIRECTION ( 'NONE',  ( 3.491481338843133355E-15, -1.224646799147353454E-16, 1.000000000000000000 ) ) ;
#305 = CARTESIAN_POINT ( 'NONE',  ( 2.932844324628232018E-13, -1.028703311283776980E-14, 84.00000000000000000 ) ) ;
#306 =( GEOMETRIC_REPRESENTATION_CONTEXT ( 3 ) GLOBAL_UNCERTAINTY_ASSIGNED_CONTEXT ( ( #157 ) ) GLOBAL_UNIT_ASSIGNED_CONTEXT ( ( #146, #321, #85 ) ) REPRESENTATION_CONTEXT ( 'NONE', 'WORKASPACE' ) );
#307 = ADVANCED_FACE ( 'NONE', ( #112 ), #223, .F. ) ;
#308 = DIRECTION ( 'NONE',  ( 0.0000000000000000000, 1.000000000000000000, 0.0000000000000000000 ) ) ;
#309 = DIRECTION ( 'NONE',  ( 0.0000000000000000000, 1.000000000000000000, 0.0000000000000000000 ) ) ;
#310 = LINE ( 'NONE', #104, #299 ) ;
#311 = DIRECTION ( 'NONE',  ( 1.798245827342159528E-15, -0.8571673007021100021, 0.5150380749100580413 ) ) ;
#312 = AXIS2_PLACEMENT_3D ( 'NONE', #89, #318, #175 ) ;
#313 = LINE ( 'NONE', #195, #324 ) ;
#314 = DIRECTION ( 'NONE',  ( 4.275831445896959482E-31, 1.000000000000000000, 1.224646799147353454E-16 ) ) ;
#315 = DIRECTION ( 'NONE',  ( 4.275831445896959482E-31, 1.000000000000000000, 1.224646799147353454E-16 ) ) ;
#316 = AXIS2_PLACEMENT_3D ( 'NONE', #221, #134, #315 ) ;
#317 = VECTOR ( 'NONE', #182, 1000.000000000000000 ) ;
#318 = DIRECTION ( 'NONE',  ( -3.491481338843133355E-15, 1.224646799147353454E-16, -1.000000000000000000 ) ) ;
#319 = ORIENTED_EDGE ( 'NONE', *, *, #68, .F. ) ;
#320 = EDGE_CURVE ( 'NONE', #225, #18, #198, .T. ) ;
#321 =( NAMED_UNIT ( * ) PLANE_ANGLE_UNIT ( ) SI_UNIT ( $, .RADIAN. ) );
#322 = EDGE_LOOP ( 'NONE', ( #181, #84, #143, #86 ) ) ;
#323 = PRODUCT_DEFINITION ( 'UNKNOWN', '', #55, #161 ) ;
#324 = VECTOR ( 'NONE', #57, 1000.000000000000114 ) ;
#325 = APPROVAL_DATE_TIME ( #38, #211 ) ;
#326 = ADVANCED_BREP_SHAPE_REPRESENTATION ( '59399', ( #254, #147, #81 ), #306 ) ;
#327 = EDGE_LOOP ( 'NONE', ( #278, #256, #159, #199 ) ) ;
#328 = PLANE ( 'NONE',  #240 ) ;
#329 = CIRCLE ( 'NONE', #205, 4.399999999999990585 ) ;
#330 = CARTESIAN_POINT ( 'NONE',  ( 1.881365836194659755E-30, 4.399999999999994138, 5.388445916248348097E-16 ) ) ;
#331 = DIRECTION ( 'NONE',  ( 3.491481338843133355E-15, -1.224646799147353454E-16, 1.000000000000000000 ) ) ;
#332 = CALENDAR_DATE ( 2021, 3, 9 ) ;
#333 = FACE_OUTER_BOUND ( 'NONE', #206, .T. ) ;
#334 = APPROVAL ( #251, 'UNSPECIFIED' ) ;
#335 = COORDINATED_UNIVERSAL_TIME_OFFSET ( 1, 0, .AHEAD. ) ;
#336 = VECTOR ( 'NONE', #115, 1000.000000000000000 ) ;
#337 = EDGE_LOOP ( 'NONE', ( #121, #284, #264, #33 ) ) ;
ENDSEC;
END-ISO-10303-21;
