ISO-10303-21;
HEADER;
FILE_DESCRIPTION (( 'STEP AP203' ),
    '1' );
FILE_NAME ('59391.step',
    '2021-11-30T08:32:42',
    ( '' ),
    ( '' ),
    'SwSTEP 2.0',
    'SolidWorks 2019',
    '' );
FILE_SCHEMA (( 'CONFIG_CONTROL_DESIGN' ));
ENDSEC;

DATA;
#1 = DIRECTION ( 'NONE',  ( 3.491481338843133355E-15, -1.224646799147353207E-16, 1.000000000000000000 ) ) ;
#2 = ADVANCED_FACE ( 'NONE', ( #8, #102 ), #293, .T. ) ;
#3 = CARTESIAN_POINT ( 'NONE',  ( 7.221656533282272616E-14, -2.533016132618388493E-15, 20.68364637364808090 ) ) ;
#4 = DATE_AND_TIME ( #232, #28 ) ;
#5 = CARTESIAN_POINT ( 'NONE',  ( 2.444036937190193349E-14, -8.572527594031473190E-16, 7.000000000000000000 ) ) ;
#6 = CARTESIAN_POINT ( 'NONE',  ( 5.707628016518648493E-14, -2.001966415627278844E-15, 16.34729635533384595 ) ) ;
#7 = EDGE_LOOP ( 'NONE', ( #100 ) ) ;
#8 = FACE_OUTER_BOUND ( 'NONE', #164, .T. ) ;
#9 = CIRCLE ( 'NONE', #287, 0.7050000000000000711 ) ;
#10 = CC_DESIGN_APPROVAL ( #156, ( #85 ) ) ;
#11 = DIRECTION ( 'NONE',  ( -3.491481338843133355E-15, 1.224646799147353207E-16, -1.000000000000000000 ) ) ;
#12 = VERTEX_POINT ( 'NONE', #106 ) ;
#13 = CIRCLE ( 'NONE', #224, 0.8084999999999989972 ) ;
#14 = CARTESIAN_POINT ( 'NONE',  ( 2.444036937190193349E-14, 0.8084999999999989972, 7.000000000000000000 ) ) ;
#15 = ADVANCED_FACE ( 'NONE', ( #300 ), #44, .F. ) ;
#16 = CC_DESIGN_PERSON_AND_ORGANIZATION_ASSIGNMENT ( #145, #80, ( #85 ) ) ;
#17 = APPROVAL_ROLE ( '' ) ;
#18 = AXIS2_PLACEMENT_3D ( 'NONE', #251, #115, #160 ) ;
#19 = EDGE_CURVE ( 'NONE', #240, #240, #278, .T. ) ;
#20 = EDGE_LOOP ( 'NONE', ( #226 ) ) ;
#21 = PERSON_AND_ORGANIZATION ( #275, #259 ) ;
#22 = AXIS2_PLACEMENT_3D ( 'NONE', #69, #252, #220 ) ;
#23 = MECHANICAL_CONTEXT ( 'NONE', #294, 'mechanical' ) ;
#24 = EDGE_LOOP ( 'NONE', ( #258 ) ) ;
#25 = APPROVAL_DATE_TIME ( #4, #156 ) ;
#26 = COORDINATED_UNIVERSAL_TIME_OFFSET ( 1, 0, .AHEAD. ) ;
#27 = EDGE_LOOP ( 'NONE', ( #228 ) ) ;
#28 = LOCAL_TIME ( 9, 32, 42.00000000000000000, #26 ) ;
#29 = DESIGN_CONTEXT ( 'detailed design', #264, 'design' ) ;
#30 = DIRECTION ( 'NONE',  ( -3.491481338843133355E-15, 1.224646799147353207E-16, -1.000000000000000000 ) ) ;
#31 = EDGE_CURVE ( 'NONE', #101, #101, #124, .T. ) ;
#32 = EDGE_LOOP ( 'NONE', ( #227 ) ) ;
#33 = CIRCLE ( 'NONE', #302, 0.7353844939755811438 ) ;
#34 = LOCAL_TIME ( 9, 32, 42.00000000000000000, #140 ) ;
#35 = CARTESIAN_POINT ( 'NONE',  ( -1.892735826383160919E-31, 0.6641624327025946739, -5.421010862427520937E-17 ) ) ;
#36 = ADVANCED_BREP_SHAPE_REPRESENTATION ( '59391', ( #209, #119, #151 ), #112 ) ;
#37 = AXIS2_PLACEMENT_3D ( 'NONE', #5, #171, #265 ) ;
#38 = AXIS2_PLACEMENT_3D ( 'NONE', #157, #205, #185 ) ;
#39 = EDGE_CURVE ( 'NONE', #291, #291, #13, .T. ) ;
#40 = CC_DESIGN_APPROVAL ( #94, ( #268 ) ) ;
#41 = EDGE_CURVE ( 'NONE', #179, #179, #177, .T. ) ;
#42 = PLANE ( 'NONE',  #65 ) ;
#43 = APPROVAL_STATUS ( 'not_yet_approved' ) ;
#44 = PLANE ( 'NONE',  #18 ) ;
#45 = CARTESIAN_POINT ( 'NONE',  ( 8.728703347107829444E-16, -3.061616997868381785E-17, 0.2499999999999998890 ) ) ;
#46 = CONICAL_SURFACE ( 'NONE', #57, 0.8084999999999989972, 0.5235987755982922653 ) ;
#47 = APPROVAL_PERSON_ORGANIZATION ( #49, #156, #74 ) ;
#48 = DIRECTION ( 'NONE',  ( 4.764205180920811766E-31, 1.000000000000000000, 1.341004542344472147E-16 ) ) ;
#49 = PERSON_AND_ORGANIZATION ( #275, #259 ) ;
#50 = EDGE_LOOP ( 'NONE', ( #153 ) ) ;
#51 = EDGE_LOOP ( 'NONE', ( #231 ) ) ;
#52 = CLOSED_SHELL ( 'NONE', ( #15, #109, #257, #92 ) ) ;
#53 = EDGE_LOOP ( 'NONE', ( #76 ) ) ;
#54 = PERSON_AND_ORGANIZATION ( #275, #259 ) ;
#55 = FACE_OUTER_BOUND ( 'NONE', #32, .T. ) ;
#56 = FACE_OUTER_BOUND ( 'NONE', #20, .T. ) ;
#57 = AXIS2_PLACEMENT_3D ( 'NONE', #247, #244, #273 ) ;
#58 = ADVANCED_FACE ( 'NONE', ( #279 ), #42, .F. ) ;
#59 = CARTESIAN_POINT ( 'NONE',  ( 2.506627765991136237E-14, -8.792066668447528551E-16, 7.179267258583378108 ) ) ;
#60 = CYLINDRICAL_SURFACE ( 'NONE', #292, 0.8084999999999994413 ) ;
#61 = AXIS2_PLACEMENT_3D ( 'NONE', #66, #183, #280 ) ;
#62 = DIRECTION ( 'NONE',  ( -3.491481338843133355E-15, 1.224646799147353207E-16, -1.000000000000000000 ) ) ;
#63 = DIRECTION ( 'NONE',  ( -4.275831445896958607E-31, -1.000000000000000000, -1.224646799147353207E-16 ) ) ;
#64 = CARTESIAN_POINT ( 'NONE',  ( 5.586370142149013368E-14, -1.959434878635765131E-15, 16.00000000000000000 ) ) ;
#65 = AXIS2_PLACEMENT_3D ( 'NONE', #134, #207, #222 ) ;
#66 = CARTESIAN_POINT ( 'NONE',  ( 1.745740669421566678E-13, -6.123233995736766085E-15, 50.00000000000000000 ) ) ;
#67 = CARTESIAN_POINT ( 'NONE',  ( 5.586370142149013368E-14, -2.168404344971008868E-15, 16.00000000000000000 ) ) ;
#68 = CALENDAR_DATE ( 2021, 30, 11 ) ;
#69 = CARTESIAN_POINT ( 'NONE',  ( 0.0000000000000000000, 0.0000000000000000000, 0.0000000000000000000 ) ) ;
#70 = ADVANCED_FACE ( 'NONE', ( #255, #110 ), #139, .T. ) ;
#71 = AXIS2_PLACEMENT_3D ( 'NONE', #129, #87, #63 ) ;
#72 = DIRECTION ( 'NONE',  ( 4.275831445896958607E-31, 1.000000000000000000, 1.224646799147353207E-16 ) ) ;
#73 = EDGE_LOOP ( 'NONE', ( #144 ) ) ;
#74 = APPROVAL_ROLE ( '' ) ;
#75 = ADVANCED_FACE ( 'NONE', ( #90, #136 ), #274, .F. ) ;
#76 = ORIENTED_EDGE ( 'NONE', *, *, #82, .T. ) ;
#77 = ORIENTED_EDGE ( 'NONE', *, *, #290, .T. ) ;
#78 = CC_DESIGN_PERSON_AND_ORGANIZATION_ASSIGNMENT ( #54, #234, ( #268 ) ) ;
#79 = ORIENTED_EDGE ( 'NONE', *, *, #31, .T. ) ;
#80 = PERSON_AND_ORGANIZATION_ROLE ( 'classification_officer' ) ;
#81 = DIRECTION ( 'NONE',  ( 4.275831445896958607E-31, 1.000000000000000000, 1.224646799147353207E-16 ) ) ;
#82 = EDGE_CURVE ( 'NONE', #84, #84, #281, .T. ) ;
#83 = FACE_OUTER_BOUND ( 'NONE', #120, .T. ) ;
#84 = VERTEX_POINT ( 'NONE', #14 ) ;
#85 = SECURITY_CLASSIFICATION ( '', '', #301 ) ;
#86 = VERTEX_POINT ( 'NONE', #201 ) ;
#87 = DIRECTION ( 'NONE',  ( 3.491481338843133355E-15, -1.224646799147353207E-16, 1.000000000000000000 ) ) ;
#88 = AXIS2_PLACEMENT_3D ( 'NONE', #59, #263, #236 ) ;
#89 = DIRECTION ( 'NONE',  ( 1.000000000000000000, 0.0000000000000000000, 0.0000000000000000000 ) ) ;
#90 = FACE_OUTER_BOUND ( 'NONE', #91, .T. ) ;
#91 = EDGE_LOOP ( 'NONE', ( #95 ) ) ;
#92 = ADVANCED_FACE ( 'NONE', ( #248 ), #266, .T. ) ;
#93 = SHAPE_DEFINITION_REPRESENTATION ( #288, #36 ) ;
#94 = APPROVAL ( #289, 'UNSPECIFIED' ) ;
#95 = ORIENTED_EDGE ( 'NONE', *, *, #126, .F. ) ;
#96 = DIRECTION ( 'NONE',  ( 0.0000000000000000000, 1.000000000000000000, 0.0000000000000000000 ) ) ;
#97 = COORDINATED_UNIVERSAL_TIME_OFFSET ( 1, 0, .AHEAD. ) ;
#98 = CALENDAR_DATE ( 2021, 30, 11 ) ;
#99 = CYLINDRICAL_SURFACE ( 'NONE', #107, 0.7050000000000006262 ) ;
#100 = ORIENTED_EDGE ( 'NONE', *, *, #82, .F. ) ;
#101 = VERTEX_POINT ( 'NONE', #238 ) ;
#102 = FACE_OUTER_BOUND ( 'NONE', #73, .T. ) ;
#103 = AXIS2_PLACEMENT_3D ( 'NONE', #225, #135, #250 ) ;
#104 = ADVANCED_FACE ( 'NONE', ( #197 ), #150, .F. ) ;
#105 = CARTESIAN_POINT ( 'NONE',  ( 2.444036937190193349E-14, 6.062778921410546297E-33, 7.000000000000000000 ) ) ;
#106 = CARTESIAN_POINT ( 'NONE',  ( 7.221656533282272616E-14, 1.499999999999994005, 20.68364637364808090 ) ) ;
#107 = AXIS2_PLACEMENT_3D ( 'NONE', #194, #195, #270 ) ;
#108 = APPROVAL_PERSON_ORGANIZATION ( #165, #199, #17 ) ;
#109 = ADVANCED_FACE ( 'NONE', ( #297, #221 ), #46, .T. ) ;
#110 = FACE_BOUND ( 'NONE', #296, .T. ) ;
#111 = COORDINATED_UNIVERSAL_TIME_OFFSET ( 1, 0, .AHEAD. ) ;
#112 =( GEOMETRIC_REPRESENTATION_CONTEXT ( 3 ) GLOBAL_UNCERTAINTY_ASSIGNED_CONTEXT ( ( #173 ) ) GLOBAL_UNIT_ASSIGNED_CONTEXT ( ( #154, #133, #180 ) ) REPRESENTATION_CONTEXT ( 'NONE', 'WORKASPACE' ) );
#113 = DIRECTION ( 'NONE',  ( -3.491481338843133355E-15, 1.224646799147353207E-16, -1.000000000000000000 ) ) ;
#114 = CC_DESIGN_PERSON_AND_ORGANIZATION_ASSIGNMENT ( #208, #189, ( #148 ) ) ;
#115 = DIRECTION ( 'NONE',  ( 3.491481338843133355E-15, -1.224646799147353207E-16, 1.000000000000000000 ) ) ;
#116 = CARTESIAN_POINT ( 'NONE',  ( 0.0000000000000000000, 0.0000000000000000000, 0.0000000000000000000 ) ) ;
#117 = DIRECTION ( 'NONE',  ( -3.491481338843133355E-15, 1.224646799147353207E-16, -1.000000000000000000 ) ) ;
#118 = APPROVAL_DATE_TIME ( #211, #94 ) ;
#119 = MANIFOLD_SOLID_BREP ( 'Corps-Déplacer/Copier1[2]', #52 ) ;
#120 = EDGE_LOOP ( 'NONE', ( #190 ) ) ;
#121 = DATE_TIME_ROLE ( 'creation_date' ) ;
#122 = ORIENTED_EDGE ( 'NONE', *, *, #31, .F. ) ;
#123 = DATE_AND_TIME ( #98, #186 ) ;
#124 = CIRCLE ( 'NONE', #204, 0.8084999999999998854 ) ;
#125 = FACE_OUTER_BOUND ( 'NONE', #198, .T. ) ;
#126 = EDGE_CURVE ( 'NONE', #86, #86, #9, .T. ) ;
#127 = CC_DESIGN_PERSON_AND_ORGANIZATION_ASSIGNMENT ( #21, #163, ( #268 ) ) ;
#128 = AXIS2_PLACEMENT_3D ( 'NONE', #105, #241, #175 ) ;
#129 = CARTESIAN_POINT ( 'NONE',  ( 2.444036937190193349E-14, 6.062778921410546297E-33, 7.000000000000000000 ) ) ;
#130 = ORIENTED_EDGE ( 'NONE', *, *, #290, .F. ) ;
#131 = EDGE_CURVE ( 'NONE', #246, #246, #181, .T. ) ;
#132 = AXIS2_PLACEMENT_3D ( 'NONE', #269, #149, #242 ) ;
#133 =( NAMED_UNIT ( * ) PLANE_ANGLE_UNIT ( ) SI_UNIT ( $, .RADIAN. ) );
#134 = CARTESIAN_POINT ( 'NONE',  ( 1.745740669421566678E-13, 8.998558695971067645E-33, 50.00000000000000000 ) ) ;
#135 = DIRECTION ( 'NONE',  ( -3.491481338843133355E-15, 1.224646799147353207E-16, -1.000000000000000000 ) ) ;
#136 = FACE_OUTER_BOUND ( 'NONE', #245, .T. ) ;
#137 = CARTESIAN_POINT ( 'NONE',  ( 2.444036937190193349E-14, -8.572527594031473190E-16, 7.000000000000000000 ) ) ;
#138 = CALENDAR_DATE ( 2021, 30, 11 ) ;
#139 = CONICAL_SURFACE ( 'NONE', #192, 1.200000000000001732, 0.7853981633974453924 ) ;
#140 = COORDINATED_UNIVERSAL_TIME_OFFSET ( 1, 0, .AHEAD. ) ;
#141 = ORIENTED_EDGE ( 'NONE', *, *, #276, .F. ) ;
#142 = EDGE_CURVE ( 'NONE', #217, #217, #215, .T. ) ;
#143 = DIRECTION ( 'NONE',  ( 4.275831445896958607E-31, 1.000000000000000000, 1.224646799147353454E-16 ) ) ;
#144 = ORIENTED_EDGE ( 'NONE', *, *, #41, .T. ) ;
#145 = PERSON_AND_ORGANIZATION ( #275, #259 ) ;
#146 = CARTESIAN_POINT ( 'NONE',  ( 1.745740669421566678E-13, 1.199999999999995515, 50.00000000000000000 ) ) ;
#147 = ORIENTED_EDGE ( 'NONE', *, *, #131, .F. ) ;
#148 = PRODUCT ( '59391', '59391', '', ( #23 ) ) ;
#149 = DIRECTION ( 'NONE',  ( -3.491481338843133355E-15, 1.224646799147353207E-16, -1.000000000000000000 ) ) ;
#150 = PLANE ( 'NONE',  #71 ) ;
#151 = AXIS2_PLACEMENT_3D ( 'NONE', #116, #203, #89 ) ;
#152 = CARTESIAN_POINT ( 'NONE',  ( 5.707628016518648493E-14, 0.7353844939755791454, 16.34729635533384595 ) ) ;
#153 = ORIENTED_EDGE ( 'NONE', *, *, #276, .T. ) ;
#154 =( LENGTH_UNIT ( ) NAMED_UNIT ( * ) SI_UNIT ( .MILLI., .METRE. ) );
#155 = DIRECTION ( 'NONE',  ( -3.491481338843133355E-15, 1.224646799147353207E-16, -1.000000000000000000 ) ) ;
#156 = APPROVAL ( #237, 'UNSPECIFIED' ) ;
#157 = CARTESIAN_POINT ( 'NONE',  ( 2.444036937190193349E-14, -8.572527594031473190E-16, 7.000000000000000000 ) ) ;
#158 = APPLICATION_PROTOCOL_DEFINITION ( 'international standard', 'config_control_design', 1994, #264 ) ;
#159 = DATE_AND_TIME ( #68, #168 ) ;
#160 = DIRECTION ( 'NONE',  ( -4.275831445896958607E-31, -1.000000000000000000, -1.224646799147353207E-16 ) ) ;
#161 = LOCAL_TIME ( 9, 32, 42.00000000000000000, #193 ) ;
#162 = EDGE_LOOP ( 'NONE', ( #233 ) ) ;
#163 = PERSON_AND_ORGANIZATION_ROLE ( 'creator' ) ;
#164 = EDGE_LOOP ( 'NONE', ( #141 ) ) ;
#165 = PERSON_AND_ORGANIZATION ( #275, #259 ) ;
#166 = CONICAL_SURFACE ( 'NONE', #37, 0.8084999999999998854, 0.5235987755982949299 ) ;
#167 = DATE_TIME_ROLE ( 'classification_date' ) ;
#168 = LOCAL_TIME ( 9, 32, 42.00000000000000000, #111 ) ;
#169 = APPROVAL_ROLE ( '' ) ;
#170 = DIRECTION ( 'NONE',  ( -3.491481338843133355E-15, 1.224646799147353207E-16, -1.000000000000000000 ) ) ;
#171 = DIRECTION ( 'NONE',  ( -3.491481338843133355E-15, 1.224646799147353207E-16, -1.000000000000000000 ) ) ;
#172 = CC_DESIGN_APPROVAL ( #199, ( #249 ) ) ;
#173 = UNCERTAINTY_MEASURE_WITH_UNIT (LENGTH_MEASURE( 1.000000000000000082E-05 ), #154, 'distance_accuracy_value', 'NONE');
#174 = FACE_BOUND ( 'NONE', #24, .T. ) ;
#175 = DIRECTION ( 'NONE',  ( -4.275831445896958607E-31, -1.000000000000000000, -1.224646799147353207E-16 ) ) ;
#176 = DIRECTION ( 'NONE',  ( 0.0000000000000000000, -1.000000000000000000, 0.0000000000000000000 ) ) ;
#177 = CIRCLE ( 'NONE', #103, 1.500000000000001554 ) ;
#178 = CARTESIAN_POINT ( 'NONE',  ( 2.506627765991136237E-14, 0.7050000000000002931, 7.179267258583378108 ) ) ;
#179 = VERTEX_POINT ( 'NONE', #216 ) ;
#180 =( NAMED_UNIT ( * ) SI_UNIT ( $, .STERADIAN. ) SOLID_ANGLE_UNIT ( ) );
#181 = CIRCLE ( 'NONE', #298, 0.6641624327025946739 ) ;
#182 = CARTESIAN_POINT ( 'NONE',  ( -4.732582441316338217E-31, 1.659966465803703956E-32, -1.355465483565904161E-16 ) ) ;
#183 = DIRECTION ( 'NONE',  ( -3.491481338843133355E-15, 1.224646799147353207E-16, -1.000000000000000000 ) ) ;
#184 = AXIS2_PLACEMENT_3D ( 'NONE', #67, #282, #72 ) ;
#185 = DIRECTION ( 'NONE',  ( 0.0000000000000000000, 1.000000000000000000, 0.0000000000000000000 ) ) ;
#186 = LOCAL_TIME ( 9, 32, 42.00000000000000000, #97 ) ;
#187 = ADVANCED_FACE ( 'NONE', ( #174, #212 ), #166, .T. ) ;
#188 = EDGE_LOOP ( 'NONE', ( #147 ) ) ;
#189 = PERSON_AND_ORGANIZATION_ROLE ( 'design_owner' ) ;
#190 = ORIENTED_EDGE ( 'NONE', *, *, #126, .T. ) ;
#191 = CALENDAR_DATE ( 2021, 30, 11 ) ;
#192 = AXIS2_PLACEMENT_3D ( 'NONE', #223, #113, #206 ) ;
#193 = COORDINATED_UNIVERSAL_TIME_OFFSET ( 1, 0, .AHEAD. ) ;
#194 = CARTESIAN_POINT ( 'NONE',  ( 0.0000000000000000000, 0.0000000000000000000, 0.0000000000000000000 ) ) ;
#195 = DIRECTION ( 'NONE',  ( -3.491481338843133355E-15, 1.224646799147353207E-16, -1.000000000000000000 ) ) ;
#196 = CC_DESIGN_PERSON_AND_ORGANIZATION_ASSIGNMENT ( #235, #271, ( #249 ) ) ;
#197 = FACE_OUTER_BOUND ( 'NONE', #53, .T. ) ;
#198 = EDGE_LOOP ( 'NONE', ( #79 ) ) ;
#199 = APPROVAL ( #43, 'UNSPECIFIED' ) ;
#200 = CLOSED_SHELL ( 'NONE', ( #104, #187, #253, #75, #230, #2, #70, #58 ) ) ;
#201 = CARTESIAN_POINT ( 'NONE',  ( 5.586370142149013368E-14, 0.7049999999999981837, 16.00000000000000000 ) ) ;
#202 = DIRECTION ( 'NONE',  ( 0.0000000000000000000, 1.000000000000000000, 0.0000000000000000000 ) ) ;
#203 = DIRECTION ( 'NONE',  ( 0.0000000000000000000, 0.0000000000000000000, 1.000000000000000000 ) ) ;
#204 = AXIS2_PLACEMENT_3D ( 'NONE', #137, #117, #277 ) ;
#205 = DIRECTION ( 'NONE',  ( -3.491481338843133355E-15, 1.224646799147353207E-16, -1.000000000000000000 ) ) ;
#206 = DIRECTION ( 'NONE',  ( 0.0000000000000000000, 1.000000000000000000, 0.0000000000000000000 ) ) ;
#207 = DIRECTION ( 'NONE',  ( -3.491481338843133355E-15, 1.224646799147353207E-16, -1.000000000000000000 ) ) ;
#208 = PERSON_AND_ORGANIZATION ( #275, #259 ) ;
#209 = MANIFOLD_SOLID_BREP ( 'Corps-Déplacer/Copier1[1]', #200 ) ;
#210 = FACE_BOUND ( 'NONE', #283, .T. ) ;
#211 = DATE_AND_TIME ( #138, #161 ) ;
#212 = FACE_OUTER_BOUND ( 'NONE', #7, .T. ) ;
#213 = CARTESIAN_POINT ( 'NONE',  ( 0.0000000000000000000, 0.0000000000000000000, 0.0000000000000000000 ) ) ;
#214 = FACE_OUTER_BOUND ( 'NONE', #50, .T. ) ;
#215 = CIRCLE ( 'NONE', #88, 0.7050000000000011813 ) ;
#216 = CARTESIAN_POINT ( 'NONE',  ( 1.735266225405037467E-13, 1.499999999999995559, 49.70000000000000284 ) ) ;
#217 = VERTEX_POINT ( 'NONE', #178 ) ;
#218 = CIRCLE ( 'NONE', #132, 1.499999999999996669 ) ;
#219 = CARTESIAN_POINT ( 'NONE',  ( 8.728703347107833388E-16, 0.8084999999999989972, 0.2500000000000000000 ) ) ;
#220 = DIRECTION ( 'NONE',  ( 4.275831445896958607E-31, 1.000000000000000000, 1.224646799147353454E-16 ) ) ;
#221 = FACE_OUTER_BOUND ( 'NONE', #162, .T. ) ;
#222 = DIRECTION ( 'NONE',  ( 4.275831445896958607E-31, 1.000000000000000000, 1.224646799147353207E-16 ) ) ;
#223 = CARTESIAN_POINT ( 'NONE',  ( 1.745740669421566678E-13, -6.123233995736766085E-15, 50.00000000000000000 ) ) ;
#224 = AXIS2_PLACEMENT_3D ( 'NONE', #45, #155, #48 ) ;
#225 = CARTESIAN_POINT ( 'NONE',  ( 1.735266225405037467E-13, -6.086494591762345225E-15, 49.70000000000000284 ) ) ;
#226 = ORIENTED_EDGE ( 'NONE', *, *, #142, .F. ) ;
#227 = ORIENTED_EDGE ( 'NONE', *, *, #39, .F. ) ;
#228 = ORIENTED_EDGE ( 'NONE', *, *, #19, .F. ) ;
#229 = APPROVAL_PERSON_ORGANIZATION ( #262, #94, #169 ) ;
#230 = ADVANCED_FACE ( 'NONE', ( #210, #214 ), #239, .T. ) ;
#231 = ORIENTED_EDGE ( 'NONE', *, *, #131, .T. ) ;
#232 = CALENDAR_DATE ( 2021, 30, 11 ) ;
#233 = ORIENTED_EDGE ( 'NONE', *, *, #39, .T. ) ;
#234 = PERSON_AND_ORGANIZATION_ROLE ( 'design_supplier' ) ;
#235 = PERSON_AND_ORGANIZATION ( #275, #259 ) ;
#236 = DIRECTION ( 'NONE',  ( 0.0000000000000000000, 1.000000000000000000, 0.0000000000000000000 ) ) ;
#237 = APPROVAL_STATUS ( 'not_yet_approved' ) ;
#238 = CARTESIAN_POINT ( 'NONE',  ( 2.444036937190193349E-14, 0.8084999999999989972, 7.000000000000000000 ) ) ;
#239 = CONICAL_SURFACE ( 'NONE', #267, 1.499999999999996669, 0.1745329251994261754 ) ;
#240 = VERTEX_POINT ( 'NONE', #146 ) ;
#241 = DIRECTION ( 'NONE',  ( 3.491481338843133355E-15, -1.224646799147353207E-16, 1.000000000000000000 ) ) ;
#242 = DIRECTION ( 'NONE',  ( 0.0000000000000000000, 1.000000000000000000, 0.0000000000000000000 ) ) ;
#243 = CC_DESIGN_DATE_AND_TIME_ASSIGNMENT ( #123, #121, ( #249 ) ) ;
#244 = DIRECTION ( 'NONE',  ( 3.491481338843133355E-15, -1.224646799147353207E-16, 1.000000000000000000 ) ) ;
#245 = EDGE_LOOP ( 'NONE', ( #77 ) ) ;
#246 = VERTEX_POINT ( 'NONE', #35 ) ;
#247 = CARTESIAN_POINT ( 'NONE',  ( 8.728703347107829444E-16, -3.061616997868381785E-17, 0.2499999999999998890 ) ) ;
#248 = FACE_OUTER_BOUND ( 'NONE', #285, .T. ) ;
#249 = PRODUCT_DEFINITION ( 'UNKNOWN', '', #268, #29 ) ;
#250 = DIRECTION ( 'NONE',  ( 0.0000000000000000000, 1.000000000000000000, 0.0000000000000000000 ) ) ;
#251 = CARTESIAN_POINT ( 'NONE',  ( -2.366291220658169109E-31, 8.299832329018519780E-33, -6.777327417829520804E-17 ) ) ;
#252 = DIRECTION ( 'NONE',  ( -3.491481338843133355E-15, 1.224646799147353207E-16, -1.000000000000000000 ) ) ;
#253 = ADVANCED_FACE ( 'NONE', ( #83, #56 ), #99, .T. ) ;
#254 = APPROVAL_DATE_TIME ( #159, #199 ) ;
#255 = FACE_OUTER_BOUND ( 'NONE', #286, .T. ) ;
#256 = DATE_AND_TIME ( #191, #34 ) ;
#257 = ADVANCED_FACE ( 'NONE', ( #55, #125 ), #60, .T. ) ;
#258 = ORIENTED_EDGE ( 'NONE', *, *, #142, .T. ) ;
#259 = ORGANIZATION ( 'UNSPECIFIED', 'UNSPECIFIED', '' ) ;
#260 = ORIENTED_EDGE ( 'NONE', *, *, #41, .F. ) ;
#261 = ORIENTED_EDGE ( 'NONE', *, *, #19, .T. ) ;
#262 = PERSON_AND_ORGANIZATION ( #275, #259 ) ;
#263 = DIRECTION ( 'NONE',  ( -3.491481338843133355E-15, 1.224646799147353207E-16, -1.000000000000000000 ) ) ;
#264 = APPLICATION_CONTEXT ( 'configuration controlled 3d designs of mechanical parts and assemblies' ) ;
#265 = DIRECTION ( 'NONE',  ( 0.0000000000000000000, 1.000000000000000000, 0.0000000000000000000 ) ) ;
#266 = PLANE ( 'NONE',  #128 ) ;
#267 = AXIS2_PLACEMENT_3D ( 'NONE', #3, #1, #176 ) ;
#268 = PRODUCT_DEFINITION_FORMATION_WITH_SPECIFIED_SOURCE ( 'ANY', '', #148, .NOT_KNOWN. ) ;
#269 = CARTESIAN_POINT ( 'NONE',  ( 7.221656533282272616E-14, -2.533016132618388493E-15, 20.68364637364808090 ) ) ;
#270 = DIRECTION ( 'NONE',  ( 4.275831445896958607E-31, 1.000000000000000000, 1.224646799147353207E-16 ) ) ;
#271 = PERSON_AND_ORGANIZATION_ROLE ( 'creator' ) ;
#272 = CC_DESIGN_DATE_AND_TIME_ASSIGNMENT ( #256, #167, ( #85 ) ) ;
#273 = DIRECTION ( 'NONE',  ( -4.764205180920811766E-31, -1.000000000000000000, -1.341004542344472147E-16 ) ) ;
#274 = TOROIDAL_SURFACE ( 'NONE', #184, 2.705000000000000515, 2.000000000000000000 ) ;
#275 = PERSON ( 'UNSPECIFIED', 'UNSPECIFIED', 'UNSPECIFIED', ('UNSPECIFIED'), ('UNSPECIFIED'), ('UNSPECIFIED') ) ;
#276 = EDGE_CURVE ( 'NONE', #12, #12, #218, .T. ) ;
#277 = DIRECTION ( 'NONE',  ( 0.0000000000000000000, 1.000000000000000000, 0.0000000000000000000 ) ) ;
#278 = CIRCLE ( 'NONE', #61, 1.200000000000001732 ) ;
#279 = FACE_OUTER_BOUND ( 'NONE', #27, .T. ) ;
#280 = DIRECTION ( 'NONE',  ( 0.0000000000000000000, 1.000000000000000000, 0.0000000000000000000 ) ) ;
#281 = CIRCLE ( 'NONE', #38, 0.8084999999999998854 ) ;
#282 = DIRECTION ( 'NONE',  ( -3.491481338843133355E-15, 1.224646799147353207E-16, -1.000000000000000000 ) ) ;
#283 = EDGE_LOOP ( 'NONE', ( #130 ) ) ;
#284 = APPLICATION_PROTOCOL_DEFINITION ( 'international standard', 'config_control_design', 1994, #294 ) ;
#285 = EDGE_LOOP ( 'NONE', ( #122 ) ) ;
#286 = EDGE_LOOP ( 'NONE', ( #260 ) ) ;
#287 = AXIS2_PLACEMENT_3D ( 'NONE', #64, #62, #202 ) ;
#288 = PRODUCT_DEFINITION_SHAPE ( 'NONE', 'NONE',  #249 ) ;
#289 = APPROVAL_STATUS ( 'not_yet_approved' ) ;
#290 = EDGE_CURVE ( 'NONE', #299, #299, #33, .T. ) ;
#291 = VERTEX_POINT ( 'NONE', #219 ) ;
#292 = AXIS2_PLACEMENT_3D ( 'NONE', #213, #30, #81 ) ;
#293 = CYLINDRICAL_SURFACE ( 'NONE', #22, 1.499999999999999112 ) ;
#294 = APPLICATION_CONTEXT ( 'configuration controlled 3d designs of mechanical parts and assemblies' ) ;
#295 = PRODUCT_RELATED_PRODUCT_CATEGORY ( 'detail', '', ( #148 ) ) ;
#296 = EDGE_LOOP ( 'NONE', ( #261 ) ) ;
#297 = FACE_BOUND ( 'NONE', #188, .T. ) ;
#298 = AXIS2_PLACEMENT_3D ( 'NONE', #182, #11, #143 ) ;
#299 = VERTEX_POINT ( 'NONE', #152 ) ;
#300 = FACE_OUTER_BOUND ( 'NONE', #51, .T. ) ;
#301 = SECURITY_CLASSIFICATION_LEVEL ( 'unclassified' ) ;
#302 = AXIS2_PLACEMENT_3D ( 'NONE', #6, #170, #96 ) ;
#303 = CC_DESIGN_SECURITY_CLASSIFICATION ( #85, ( #268 ) ) ;
ENDSEC;
END-ISO-10303-21;
