ISO-10303-21;
HEADER;
FILE_DESCRIPTION (( 'STEP AP203' ),
    '1' );
FILE_NAME ('59356.step',
    '2021-11-01T10:35:27',
    ( '' ),
    ( '' ),
    'SwSTEP 2.0',
    'SolidWorks 2019',
    '' );
FILE_SCHEMA (( 'CONFIG_CONTROL_DESIGN' ));
ENDSEC;

DATA;
#1 = DIRECTION ( 'NONE',  ( -3.491481338843133355E-15, 1.224646799147353207E-16, -1.000000000000000000 ) ) ;
#2 = DIRECTION ( 'NONE',  ( 4.275831445896958607E-31, 1.000000000000000000, 1.224646799147353207E-16 ) ) ;
#3 = ADVANCED_FACE ( 'NONE', ( #87 ), #158, .T. ) ;
#4 = PERSON_AND_ORGANIZATION ( #37, #135 ) ;
#5 = APPLICATION_PROTOCOL_DEFINITION ( 'international standard', 'config_control_design', 1994, #23 ) ;
#6 = AXIS2_PLACEMENT_3D ( 'NONE', #127, #38, #224 ) ;
#7 = DESIGN_CONTEXT ( 'detailed design', #239, 'design' ) ;
#8 = APPROVAL_DATE_TIME ( #191, #78 ) ;
#9 = AXIS2_PLACEMENT_3D ( 'NONE', #204, #44, #111 ) ;
#10 = ORIENTED_EDGE ( 'NONE', *, *, #203, .T. ) ;
#11 = PRODUCT_RELATED_PRODUCT_CATEGORY ( 'detail', '', ( #176 ) ) ;
#12 = SECURITY_CLASSIFICATION_LEVEL ( 'unclassified' ) ;
#13 = PERSON_AND_ORGANIZATION_ROLE ( 'classification_officer' ) ;
#14 = EDGE_LOOP ( 'NONE', ( #154 ) ) ;
#15 = APPROVAL_STATUS ( 'not_yet_approved' ) ;
#16 = EDGE_LOOP ( 'NONE', ( #33 ) ) ;
#17 = DIRECTION ( 'NONE',  ( 3.491481338843133355E-15, -1.224646799147353207E-16, 1.000000000000000000 ) ) ;
#18 = CARTESIAN_POINT ( 'NONE',  ( 1.326762908760390423E-13, -4.653657836759941941E-15, 38.00000000000000000 ) ) ;
#19 = FACE_BOUND ( 'NONE', #68, .T. ) ;
#20 = CC_DESIGN_APPROVAL ( #78, ( #201 ) ) ;
#21 = CARTESIAN_POINT ( 'NONE',  ( -8.551680453529350800E-31, 2.999525725151307090E-32, -2.449298628175645296E-16 ) ) ;
#22 = FACE_BOUND ( 'NONE', #195, .T. ) ;
#23 = APPLICATION_CONTEXT ( 'configuration controlled 3d designs of mechanical parts and assemblies' ) ;
#24 = CC_DESIGN_PERSON_AND_ORGANIZATION_ASSIGNMENT ( #177, #235, ( #201 ) ) ;
#25 = CIRCLE ( 'NONE', #58, 1.499999999999994893 ) ;
#26 = PERSON_AND_ORGANIZATION ( #37, #135 ) ;
#27 = VERTEX_POINT ( 'NONE', #42 ) ;
#28 = COORDINATED_UNIVERSAL_TIME_OFFSET ( 1, 0, .AHEAD. ) ;
#29 = CONICAL_SURFACE ( 'NONE', #193, 1.199999999999995959, 0.7853981633974468357 ) ;
#30 = EDGE_LOOP ( 'NONE', ( #155 ) ) ;
#31 = DATE_AND_TIME ( #102, #70 ) ;
#32 = APPROVAL_ROLE ( '' ) ;
#33 = ORIENTED_EDGE ( 'NONE', *, *, #138, .F. ) ;
#34 = ADVANCED_FACE ( 'NONE', ( #160, #181 ), #67, .F. ) ;
#35 = CARTESIAN_POINT ( 'NONE',  ( 1.326762908760390423E-13, -4.653657836759941941E-15, 38.00000000000000000 ) ) ;
#36 = CARTESIAN_POINT ( 'NONE',  ( 1.152188841818233849E-14, -4.336808689942017736E-16, 3.299999999999999378 ) ) ;
#37 = PERSON ( 'UNSPECIFIED', 'UNSPECIFIED', 'UNSPECIFIED', ('UNSPECIFIED'), ('UNSPECIFIED'), ('UNSPECIFIED') ) ;
#38 = DIRECTION ( 'NONE',  ( 3.491481338843133355E-15, -1.219242935835426903E-16, 1.000000000000000000 ) ) ;
#39 = LOCAL_TIME ( 11, 35, 27.00000000000000000, #28 ) ;
#40 = DIRECTION ( 'NONE',  ( -4.315327242388476984E-31, -1.000000000000000000, -1.219242935835426903E-16 ) ) ;
#41 = CARTESIAN_POINT ( 'NONE',  ( 0.0000000000000000000, 0.0000000000000000000, 0.0000000000000000000 ) ) ;
#42 = CARTESIAN_POINT ( 'NONE',  ( 1.152188841818233849E-14, -0.5500000000000005995, 3.299999999999999378 ) ) ;
#43 = AXIS2_PLACEMENT_3D ( 'NONE', #18, #1, #109 ) ;
#44 = DIRECTION ( 'NONE',  ( 3.491481338843133355E-15, -1.219242935835426903E-16, 1.000000000000000000 ) ) ;
#45 = PERSON_AND_ORGANIZATION ( #37, #135 ) ;
#46 = ADVANCED_FACE ( 'NONE', ( #240 ), #164, .F. ) ;
#47 = PERSON_AND_ORGANIZATION_ROLE ( 'design_owner' ) ;
#48 = VERTEX_POINT ( 'NONE', #61 ) ;
#49 = CLOSED_SHELL ( 'NONE', ( #3, #115, #118 ) ) ;
#50 = ORIENTED_EDGE ( 'NONE', *, *, #203, .F. ) ;
#51 = CALENDAR_DATE ( 2021, 1, 11 ) ;
#52 = AXIS2_PLACEMENT_3D ( 'NONE', #106, #73, #142 ) ;
#53 = ORIENTED_EDGE ( 'NONE', *, *, #125, .F. ) ;
#54 = ORIENTED_EDGE ( 'NONE', *, *, #225, .T. ) ;
#55 = CIRCLE ( 'NONE', #107, 0.6181483474218597562 ) ;
#56 = PLANE ( 'NONE',  #91 ) ;
#57 = DIRECTION ( 'NONE',  ( -3.491481338843133355E-15, 1.219242935835426903E-16, -1.000000000000000000 ) ) ;
#58 = AXIS2_PLACEMENT_3D ( 'NONE', #123, #57, #180 ) ;
#59 = FACE_OUTER_BOUND ( 'NONE', #101, .T. ) ;
#60 = DIRECTION ( 'NONE',  ( 0.0000000000000000000, 0.0000000000000000000, 1.000000000000000000 ) ) ;
#61 = CARTESIAN_POINT ( 'NONE',  ( 1.332921215040759645E-14, -0.6181483474218602003, 3.817638090205028867 ) ) ;
#62 = AXIS2_PLACEMENT_3D ( 'NONE', #36, #88, #40 ) ;
#63 = PERSON_AND_ORGANIZATION ( #37, #135 ) ;
#64 = CARTESIAN_POINT ( 'NONE',  ( 1.326762908760390423E-13, 1.199999999999991518, 38.00000000000000000 ) ) ;
#65 = CALENDAR_DATE ( 2021, 1, 11 ) ;
#66 = CC_DESIGN_PERSON_AND_ORGANIZATION_ASSIGNMENT ( #216, #13, ( #121 ) ) ;
#67 = TOROIDAL_SURFACE ( 'NONE', #62, 2.550000000000000266, 2.000000000000000444 ) ;
#68 = EDGE_LOOP ( 'NONE', ( #10 ) ) ;
#69 = COORDINATED_UNIVERSAL_TIME_OFFSET ( 1, 0, .AHEAD. ) ;
#70 = LOCAL_TIME ( 11, 35, 27.00000000000000000, #69 ) ;
#71 = ORIENTED_EDGE ( 'NONE', *, *, #153, .F. ) ;
#72 = MANIFOLD_SOLID_BREP ( 'Corps-Déplacer/Copier1[2]', #49 ) ;
#73 = DIRECTION ( 'NONE',  ( -3.491481338843133355E-15, 1.224646799147353207E-16, -1.000000000000000000 ) ) ;
#74 = DIRECTION ( 'NONE',  ( -3.491481338843133355E-15, 1.224646799147353207E-16, -1.000000000000000000 ) ) ;
#75 = FACE_OUTER_BOUND ( 'NONE', #179, .T. ) ;
#76 = FACE_OUTER_BOUND ( 'NONE', #117, .T. ) ;
#77 = DIRECTION ( 'NONE',  ( -4.275831445896958607E-31, -1.000000000000000000, -1.224646799147353207E-16 ) ) ;
#78 = APPROVAL ( #95, 'UNSPECIFIED' ) ;
#79 = DIRECTION ( 'NONE',  ( 1.000000000000000000, 0.0000000000000000000, 0.0000000000000000000 ) ) ;
#80 = CARTESIAN_POINT ( 'NONE',  ( 1.152188841818233849E-14, -4.023501688256907990E-16, 3.299999999999999378 ) ) ;
#81 = CC_DESIGN_DATE_AND_TIME_ASSIGNMENT ( #205, #110, ( #159 ) ) ;
#82 = AXIS2_PLACEMENT_3D ( 'NONE', #21, #183, #220 ) ;
#83 = CARTESIAN_POINT ( 'NONE',  ( 0.0000000000000000000, 0.0000000000000000000, 0.0000000000000000000 ) ) ;
#84 = MECHANICAL_CONTEXT ( 'NONE', #23, 'mechanical' ) ;
#85 = SHAPE_DEFINITION_REPRESENTATION ( #100, #215 ) ;
#86 =( GEOMETRIC_REPRESENTATION_CONTEXT ( 3 ) GLOBAL_UNCERTAINTY_ASSIGNED_CONTEXT ( ( #97 ) ) GLOBAL_UNIT_ASSIGNED_CONTEXT ( ( #210, #184, #172 ) ) REPRESENTATION_CONTEXT ( 'NONE', 'WORKASPACE' ) );
#87 = FACE_OUTER_BOUND ( 'NONE', #192, .T. ) ;
#88 = DIRECTION ( 'NONE',  ( 3.491481338843133355E-15, -1.219242935835426903E-16, 1.000000000000000000 ) ) ;
#89 = FACE_OUTER_BOUND ( 'NONE', #218, .T. ) ;
#90 = FACE_OUTER_BOUND ( 'NONE', #213, .T. ) ;
#91 = AXIS2_PLACEMENT_3D ( 'NONE', #199, #17, #77 ) ;
#92 = CYLINDRICAL_SURFACE ( 'NONE', #207, 0.5500000000000001554 ) ;
#93 = DIRECTION ( 'NONE',  ( 0.0000000000000000000, 1.000000000000000000, 0.0000000000000000000 ) ) ;
#94 = AXIS2_PLACEMENT_3D ( 'NONE', #80, #230, #227 ) ;
#95 = APPROVAL_STATUS ( 'not_yet_approved' ) ;
#96 = APPROVAL ( #147, 'UNSPECIFIED' ) ;
#97 = UNCERTAINTY_MEASURE_WITH_UNIT (LENGTH_MEASURE( 1.000000000000000082E-05 ), #210, 'distance_accuracy_value', 'NONE');
#98 = CC_DESIGN_SECURITY_CLASSIFICATION ( #121, ( #201 ) ) ;
#99 = VERTEX_POINT ( 'NONE', #130 ) ;
#100 = PRODUCT_DEFINITION_SHAPE ( 'NONE', 'NONE',  #159 ) ;
#101 = EDGE_LOOP ( 'NONE', ( #134 ) ) ;
#102 = CALENDAR_DATE ( 2021, 1, 11 ) ;
#103 = EDGE_LOOP ( 'NONE', ( #50 ) ) ;
#104 = CARTESIAN_POINT ( 'NONE',  ( 1.152188841818234007E-14, 1.124819836996387048E-32, 3.299999999999999822 ) ) ;
#105 = DIRECTION ( 'NONE',  ( 3.491481338843133355E-15, -1.219242935835426903E-16, 1.000000000000000000 ) ) ;
#106 = CARTESIAN_POINT ( 'NONE',  ( 1.326762908760390423E-13, 8.998558695971047118E-33, 38.00000000000000000 ) ) ;
#107 = AXIS2_PLACEMENT_3D ( 'NONE', #163, #105, #145 ) ;
#108 = DIRECTION ( 'NONE',  ( -4.256963957985708889E-31, -1.000000000000000000, -1.219242935835426903E-16 ) ) ;
#109 = DIRECTION ( 'NONE',  ( 0.0000000000000000000, 1.000000000000000000, 0.0000000000000000000 ) ) ;
#110 = DATE_TIME_ROLE ( 'creation_date' ) ;
#111 = DIRECTION ( 'NONE',  ( -4.256963957985708013E-31, -1.000000000000000000, -1.219242935835427642E-16 ) ) ;
#112 = APPROVAL_ROLE ( '' ) ;
#113 = COORDINATED_UNIVERSAL_TIME_OFFSET ( 1, 0, .AHEAD. ) ;
#114 = CIRCLE ( 'NONE', #94, 0.5500000000000001554 ) ;
#115 = ADVANCED_FACE ( 'NONE', ( #124, #161 ), #92, .T. ) ;
#116 = COORDINATED_UNIVERSAL_TIME_OFFSET ( 1, 0, .AHEAD. ) ;
#117 = EDGE_LOOP ( 'NONE', ( #234 ) ) ;
#118 = ADVANCED_FACE ( 'NONE', ( #75 ), #139, .F. ) ;
#119 = CONICAL_SURFACE ( 'NONE', #129, 2.499999999999995559, 0.2617993877991430240 ) ;
#120 = ORIENTED_EDGE ( 'NONE', *, *, #228, .F. ) ;
#121 = SECURITY_CLASSIFICATION ( '', '', #12 ) ;
#122 = DIRECTION ( 'NONE',  ( 3.491481338843133355E-15, -1.224646799147353207E-16, 1.000000000000000000 ) ) ;
#123 = CARTESIAN_POINT ( 'NONE',  ( 2.482007935798866040E-14, -8.667297197735925182E-16, 7.108753262365291370 ) ) ;
#124 = FACE_OUTER_BOUND ( 'NONE', #30, .T. ) ;
#125 = EDGE_CURVE ( 'NONE', #132, #132, #196, .T. ) ;
#126 = DIRECTION ( 'NONE',  ( 0.0000000000000000000, 1.000000000000000000, 0.0000000000000000000 ) ) ;
#127 = CARTESIAN_POINT ( 'NONE',  ( 1.152188841818233849E-14, -4.023501688256907990E-16, 3.299999999999999378 ) ) ;
#128 = PERSON_AND_ORGANIZATION_ROLE ( 'creator' ) ;
#129 = AXIS2_PLACEMENT_3D ( 'NONE', #226, #243, #200 ) ;
#130 = CARTESIAN_POINT ( 'NONE',  ( 2.482007935798866040E-14, -1.499999999999995781, 7.108753262365291370 ) ) ;
#131 = VERTEX_POINT ( 'NONE', #186 ) ;
#132 = VERTEX_POINT ( 'NONE', #64 ) ;
#133 = ORIENTED_EDGE ( 'NONE', *, *, #125, .T. ) ;
#134 = ORIENTED_EDGE ( 'NONE', *, *, #236, .F. ) ;
#135 = ORGANIZATION ( 'UNSPECIFIED', 'UNSPECIFIED', '' ) ;
#136 = EDGE_LOOP ( 'NONE', ( #237 ) ) ;
#137 = PERSON_AND_ORGANIZATION_ROLE ( 'design_supplier' ) ;
#138 = EDGE_CURVE ( 'NONE', #131, #131, #238, .T. ) ;
#139 = PLANE ( 'NONE',  #82 ) ;
#140 = LOCAL_TIME ( 11, 35, 27.00000000000000000, #212 ) ;
#141 = CYLINDRICAL_SURFACE ( 'NONE', #182, 1.499999999999994893 ) ;
#142 = DIRECTION ( 'NONE',  ( 4.275831445896958607E-31, 1.000000000000000000, 1.224646799147353207E-16 ) ) ;
#143 = APPROVAL ( #15, 'UNSPECIFIED' ) ;
#144 = DIRECTION ( 'NONE',  ( -3.491481338843133355E-15, 1.224646799147353207E-16, -1.000000000000000000 ) ) ;
#145 = DIRECTION ( 'NONE',  ( 0.0000000000000000000, -1.000000000000000000, 0.0000000000000000000 ) ) ;
#146 = MANIFOLD_SOLID_BREP ( 'Corps-Déplacer/Copier1[1]', #148 ) ;
#147 = APPROVAL_STATUS ( 'not_yet_approved' ) ;
#148 = CLOSED_SHELL ( 'NONE', ( #170, #185, #46, #208, #34, #198 ) ) ;
#149 = DATE_AND_TIME ( #169, #233 ) ;
#150 = APPLICATION_PROTOCOL_DEFINITION ( 'international standard', 'config_control_design', 1994, #239 ) ;
#151 = APPROVAL_DATE_TIME ( #31, #143 ) ;
#152 = AXIS2_PLACEMENT_3D ( 'NONE', #222, #74, #126 ) ;
#153 = EDGE_CURVE ( 'NONE', #99, #99, #25, .T. ) ;
#154 = ORIENTED_EDGE ( 'NONE', *, *, #236, .T. ) ;
#155 = ORIENTED_EDGE ( 'NONE', *, *, #228, .T. ) ;
#156 = CC_DESIGN_APPROVAL ( #96, ( #159 ) ) ;
#157 = CALENDAR_DATE ( 2021, 1, 11 ) ;
#158 = PLANE ( 'NONE',  #242 ) ;
#159 = PRODUCT_DEFINITION ( 'UNKNOWN', '', #201, #7 ) ;
#160 = FACE_OUTER_BOUND ( 'NONE', #14, .T. ) ;
#161 = FACE_OUTER_BOUND ( 'NONE', #136, .T. ) ;
#162 = APPROVAL_PERSON_ORGANIZATION ( #45, #96, #112 ) ;
#163 = CARTESIAN_POINT ( 'NONE',  ( 1.332921215040759645E-14, -4.654628273058731227E-16, 3.817638090205028867 ) ) ;
#164 = PLANE ( 'NONE',  #52 ) ;
#165 = DIRECTION ( 'NONE',  ( 3.491481338843133355E-15, -1.219242935835426903E-16, 1.000000000000000000 ) ) ;
#166 = VERTEX_POINT ( 'NONE', #209 ) ;
#167 = APPROVAL_PERSON_ORGANIZATION ( #26, #78, #168 ) ;
#168 = APPROVAL_ROLE ( '' ) ;
#169 = CALENDAR_DATE ( 2021, 1, 11 ) ;
#170 = ADVANCED_FACE ( 'NONE', ( #76, #89 ), #141, .T. ) ;
#171 = LOCAL_TIME ( 11, 35, 27.00000000000000000, #116 ) ;
#172 =( NAMED_UNIT ( * ) SI_UNIT ( $, .STERADIAN. ) SOLID_ANGLE_UNIT ( ) );
#173 = CC_DESIGN_PERSON_AND_ORGANIZATION_ASSIGNMENT ( #178, #137, ( #201 ) ) ;
#174 = ORIENTED_EDGE ( 'NONE', *, *, #153, .T. ) ;
#175 = APPROVAL_PERSON_ORGANIZATION ( #232, #143, #32 ) ;
#176 = PRODUCT ( '59356', '59356', '', ( #84 ) ) ;
#177 = PERSON_AND_ORGANIZATION ( #37, #135 ) ;
#178 = PERSON_AND_ORGANIZATION ( #37, #135 ) ;
#179 = EDGE_LOOP ( 'NONE', ( #120 ) ) ;
#180 = DIRECTION ( 'NONE',  ( 0.0000000000000000000, -1.000000000000000000, 0.0000000000000000000 ) ) ;
#181 = FACE_OUTER_BOUND ( 'NONE', #103, .T. ) ;
#182 = AXIS2_PLACEMENT_3D ( 'NONE', #202, #144, #2 ) ;
#183 = DIRECTION ( 'NONE',  ( 3.491481338843133355E-15, -1.224646799147353207E-16, 1.000000000000000000 ) ) ;
#184 =( NAMED_UNIT ( * ) PLANE_ANGLE_UNIT ( ) SI_UNIT ( $, .RADIAN. ) );
#185 = ADVANCED_FACE ( 'NONE', ( #197, #22 ), #29, .T. ) ;
#186 = CARTESIAN_POINT ( 'NONE',  ( 1.316288464743861212E-13, 1.499999999999992228, 37.69999999999999574 ) ) ;
#187 = CIRCLE ( 'NONE', #9, 0.5500000000000001554 ) ;
#188 = CARTESIAN_POINT ( 'NONE',  ( 1.152188841818233849E-14, -0.5500000000000005995, 3.299999999999999378 ) ) ;
#189 = CC_DESIGN_PERSON_AND_ORGANIZATION_ASSIGNMENT ( #4, #128, ( #159 ) ) ;
#190 = APPROVAL_DATE_TIME ( #149, #96 ) ;
#191 = DATE_AND_TIME ( #157, #171 ) ;
#192 = EDGE_LOOP ( 'NONE', ( #54 ) ) ;
#193 = AXIS2_PLACEMENT_3D ( 'NONE', #35, #223, #93 ) ;
#194 = EDGE_LOOP ( 'NONE', ( #53 ) ) ;
#195 = EDGE_LOOP ( 'NONE', ( #133 ) ) ;
#196 = CIRCLE ( 'NONE', #43, 1.199999999999995959 ) ;
#197 = FACE_OUTER_BOUND ( 'NONE', #16, .T. ) ;
#198 = ADVANCED_FACE ( 'NONE', ( #59 ), #56, .F. ) ;
#199 = CARTESIAN_POINT ( 'NONE',  ( 1.152188841818234007E-14, 1.124819836996387048E-32, 3.299999999999999822 ) ) ;
#200 = DIRECTION ( 'NONE',  ( 0.0000000000000000000, -1.000000000000000000, 0.0000000000000000000 ) ) ;
#201 = PRODUCT_DEFINITION_FORMATION_WITH_SPECIFIED_SOURCE ( 'ANY', '', #176, .NOT_KNOWN. ) ;
#202 = CARTESIAN_POINT ( 'NONE',  ( 0.0000000000000000000, 0.0000000000000000000, 0.0000000000000000000 ) ) ;
#203 = EDGE_CURVE ( 'NONE', #48, #48, #55, .T. ) ;
#204 = CARTESIAN_POINT ( 'NONE',  ( -2.585843825279624975E-30, 9.029897373561444056E-32, -7.406151069781795413E-16 ) ) ;
#205 = DATE_AND_TIME ( #65, #39 ) ;
#206 = VERTEX_POINT ( 'NONE', #188 ) ;
#207 = AXIS2_PLACEMENT_3D ( 'NONE', #41, #165, #108 ) ;
#208 = ADVANCED_FACE ( 'NONE', ( #19, #90 ), #119, .T. ) ;
#209 = CARTESIAN_POINT ( 'NONE',  ( -2.819976842968838715E-30, -0.5500000000000001554, -8.076734684491280899E-16 ) ) ;
#210 =( LENGTH_UNIT ( ) NAMED_UNIT ( * ) SI_UNIT ( .MILLI., .METRE. ) );
#211 = CIRCLE ( 'NONE', #6, 0.5500000000000001554 ) ;
#212 = COORDINATED_UNIVERSAL_TIME_OFFSET ( 1, 0, .AHEAD. ) ;
#213 = EDGE_LOOP ( 'NONE', ( #174 ) ) ;
#214 = DATE_AND_TIME ( #51, #140 ) ;
#215 = ADVANCED_BREP_SHAPE_REPRESENTATION ( '59356', ( #146, #72, #221 ), #86 ) ;
#216 = PERSON_AND_ORGANIZATION ( #37, #135 ) ;
#217 = DATE_TIME_ROLE ( 'classification_date' ) ;
#218 = EDGE_LOOP ( 'NONE', ( #71 ) ) ;
#219 = CC_DESIGN_PERSON_AND_ORGANIZATION_ASSIGNMENT ( #63, #47, ( #176 ) ) ;
#220 = DIRECTION ( 'NONE',  ( -4.275831445896958607E-31, -1.000000000000000000, -1.224646799147353207E-16 ) ) ;
#221 = AXIS2_PLACEMENT_3D ( 'NONE', #83, #60, #79 ) ;
#222 = CARTESIAN_POINT ( 'NONE',  ( 1.316288464743861212E-13, -4.616918432785521081E-15, 37.69999999999999574 ) ) ;
#223 = DIRECTION ( 'NONE',  ( -3.491481338843133355E-15, 1.224646799147353207E-16, -1.000000000000000000 ) ) ;
#224 = DIRECTION ( 'NONE',  ( 0.0000000000000000000, -1.000000000000000000, 0.0000000000000000000 ) ) ;
#225 = EDGE_CURVE ( 'NONE', #27, #27, #211, .T. ) ;
#226 = CARTESIAN_POINT ( 'NONE',  ( 3.785046510823018504E-14, -1.321757378104330053E-15, 10.84080406993426671 ) ) ;
#227 = DIRECTION ( 'NONE',  ( 0.0000000000000000000, -1.000000000000000000, 0.0000000000000000000 ) ) ;
#228 = EDGE_CURVE ( 'NONE', #166, #166, #187, .T. ) ;
#229 = CC_DESIGN_APPROVAL ( #143, ( #121 ) ) ;
#230 = DIRECTION ( 'NONE',  ( 3.491481338843133355E-15, -1.219242935835426903E-16, 1.000000000000000000 ) ) ;
#231 = CC_DESIGN_DATE_AND_TIME_ASSIGNMENT ( #214, #217, ( #121 ) ) ;
#232 = PERSON_AND_ORGANIZATION ( #37, #135 ) ;
#233 = LOCAL_TIME ( 11, 35, 27.00000000000000000, #113 ) ;
#234 = ORIENTED_EDGE ( 'NONE', *, *, #138, .T. ) ;
#235 = PERSON_AND_ORGANIZATION_ROLE ( 'creator' ) ;
#236 = EDGE_CURVE ( 'NONE', #206, #206, #114, .T. ) ;
#237 = ORIENTED_EDGE ( 'NONE', *, *, #225, .F. ) ;
#238 = CIRCLE ( 'NONE', #152, 1.499999999999996669 ) ;
#239 = APPLICATION_CONTEXT ( 'configuration controlled 3d designs of mechanical parts and assemblies' ) ;
#240 = FACE_OUTER_BOUND ( 'NONE', #194, .T. ) ;
#241 = DIRECTION ( 'NONE',  ( -4.275831445896958607E-31, -1.000000000000000000, -1.224646799147353207E-16 ) ) ;
#242 = AXIS2_PLACEMENT_3D ( 'NONE', #104, #122, #241 ) ;
#243 = DIRECTION ( 'NONE',  ( 3.491481338843133355E-15, -1.219242935835426903E-16, 1.000000000000000000 ) ) ;
ENDSEC;
END-ISO-10303-21;
