ISO-10303-21;
HEADER;
FILE_DESCRIPTION (( 'STEP AP203' ),
    '1' );
FILE_NAME ('59024.step',
    '2021-12-07T09:13:26',
    ( '' ),
    ( '' ),
    'SwSTEP 2.0',
    'SolidWorks 2019',
    '' );
FILE_SCHEMA (( 'CONFIG_CONTROL_DESIGN' ));
ENDSEC;

DATA;
#1 = PRODUCT_DEFINITION_FORMATION_WITH_SPECIFIED_SOURCE ( 'ANY', '', #100, .NOT_KNOWN. ) ;
#2 =( NAMED_UNIT ( * ) PLANE_ANGLE_UNIT ( ) SI_UNIT ( $, .RADIAN. ) );
#3 = SHAPE_DEFINITION_REPRESENTATION ( #122, #49 ) ;
#4 = CC_DESIGN_PERSON_AND_ORGANIZATION_ASSIGNMENT ( #34, #19, ( #100 ) ) ;
#5 = DIRECTION ( 'NONE',  ( -3.491481338843133355E-15, 1.224646799147352961E-16, -1.000000000000000000 ) ) ;
#6 = CARTESIAN_POINT ( 'NONE',  ( -9.299933394825885714E-30, 6.499999999999999112, -2.663606788145493417E-15 ) ) ;
#7 = AXIS2_PLACEMENT_3D ( 'NONE', #64, #118, #111 ) ;
#8 = PERSON_AND_ORGANIZATION ( #155, #113 ) ;
#9 = APPROVAL ( #160, 'UNSPECIFIED' ) ;
#10 = CARTESIAN_POINT ( 'NONE',  ( 3.491481338843112056E-15, -1.224646799147345319E-16, 0.9999999999999940048 ) ) ;
#11 = DATE_AND_TIME ( #138, #84 ) ;
#12 = CYLINDRICAL_SURFACE ( 'NONE', #37, 25.00000000000000000 ) ;
#13 = PERSON_AND_ORGANIZATION_ROLE ( 'classification_officer' ) ;
#14 = DIRECTION ( 'NONE',  ( -3.491481338843133355E-15, 1.224646799147352961E-16, -1.000000000000000000 ) ) ;
#15 = CYLINDRICAL_SURFACE ( 'NONE', #115, 6.500000000000002665 ) ;
#16 = AXIS2_PLACEMENT_3D ( 'NONE', #21, #159, #156 ) ;
#17 = CARTESIAN_POINT ( 'NONE',  ( -1.068957861474239494E-29, 25.00000000000000000, -3.061616997868383043E-15 ) ) ;
#18 = CARTESIAN_POINT ( 'NONE',  ( 3.491481338843117184E-15, 6.500000000000005329, 0.9999999999999954481 ) ) ;
#19 = PERSON_AND_ORGANIZATION_ROLE ( 'design_owner' ) ;
#20 =( GEOMETRIC_REPRESENTATION_CONTEXT ( 3 ) GLOBAL_UNCERTAINTY_ASSIGNED_CONTEXT ( ( #59 ) ) GLOBAL_UNIT_ASSIGNED_CONTEXT ( ( #161, #2, #97 ) ) REPRESENTATION_CONTEXT ( 'NONE', 'WORKASPACE' ) );
#21 = CARTESIAN_POINT ( 'NONE',  ( 3.491481338843114028E-15, -1.224646799147346305E-16, 0.9999999999999945599 ) ) ;
#22 = LOCAL_TIME ( 10, 13, 26.00000000000000000, #81 ) ;
#23 = CC_DESIGN_PERSON_AND_ORGANIZATION_ASSIGNMENT ( #128, #61, ( #1 ) ) ;
#24 = DIRECTION ( 'NONE',  ( -3.491481338843133355E-15, 1.224646799147352961E-16, -1.000000000000000000 ) ) ;
#25 = DATE_AND_TIME ( #43, #107 ) ;
#26 = EDGE_LOOP ( 'NONE', ( #73 ) ) ;
#27 = EDGE_LOOP ( 'NONE', ( #50 ) ) ;
#28 = ADVANCED_FACE ( 'NONE', ( #152, #117 ), #15, .F. ) ;
#29 = COORDINATED_UNIVERSAL_TIME_OFFSET ( 1, 0, .AHEAD. ) ;
#30 = SECURITY_CLASSIFICATION ( '', '', #166 ) ;
#31 = FACE_OUTER_BOUND ( 'NONE', #169, .T. ) ;
#32 = APPROVAL_ROLE ( '' ) ;
#33 = DATE_AND_TIME ( #148, #96 ) ;
#34 = PERSON_AND_ORGANIZATION ( #155, #113 ) ;
#35 = PERSON_AND_ORGANIZATION ( #155, #113 ) ;
#36 = ADVANCED_FACE ( 'NONE', ( #167, #129 ), #12, .T. ) ;
#37 = AXIS2_PLACEMENT_3D ( 'NONE', #63, #24, #72 ) ;
#38 = APPROVAL_ROLE ( '' ) ;
#39 = ORIENTED_EDGE ( 'NONE', *, *, #109, .T. ) ;
#40 = PERSON_AND_ORGANIZATION ( #155, #113 ) ;
#41 = DIRECTION ( 'NONE',  ( -3.491481338843133355E-15, 1.224646799147352961E-16, -1.000000000000000000 ) ) ;
#42 = CC_DESIGN_APPROVAL ( #114, ( #30 ) ) ;
#43 = CALENDAR_DATE ( 2021, 7, 12 ) ;
#44 = EDGE_CURVE ( 'NONE', #65, #65, #165, .T. ) ;
#45 = FACE_BOUND ( 'NONE', #27, .T. ) ;
#46 = VERTEX_POINT ( 'NONE', #18 ) ;
#47 = FACE_BOUND ( 'NONE', #145, .T. ) ;
#48 = COORDINATED_UNIVERSAL_TIME_OFFSET ( 1, 0, .AHEAD. ) ;
#49 = ADVANCED_BREP_SHAPE_REPRESENTATION ( '59024', ( #60, #143 ), #20 ) ;
#50 = ORIENTED_EDGE ( 'NONE', *, *, #44, .F. ) ;
#51 = ORIENTED_EDGE ( 'NONE', *, *, #153, .F. ) ;
#52 = DIRECTION ( 'NONE',  ( -3.491481338843133355E-15, 1.224646799147352961E-16, -1.000000000000000000 ) ) ;
#53 = CARTESIAN_POINT ( 'NONE',  ( 0.0000000000000000000, 0.0000000000000000000, 0.0000000000000000000 ) ) ;
#54 = FACE_OUTER_BOUND ( 'NONE', #88, .T. ) ;
#55 = APPLICATION_CONTEXT ( 'configuration controlled 3d designs of mechanical parts and assemblies' ) ;
#56 = APPLICATION_PROTOCOL_DEFINITION ( 'international standard', 'config_control_design', 1994, #85 ) ;
#57 = DIRECTION ( 'NONE',  ( 0.0000000000000000000, 0.0000000000000000000, 1.000000000000000000 ) ) ;
#58 = CIRCLE ( 'NONE', #147, 25.00000000000000000 ) ;
#59 = UNCERTAINTY_MEASURE_WITH_UNIT (LENGTH_MEASURE( 1.000000000000000082E-05 ), #161, 'distance_accuracy_value', 'NONE');
#60 = MANIFOLD_SOLID_BREP ( 'Corps-Déplacer/Copier1', #93 ) ;
#61 = PERSON_AND_ORGANIZATION_ROLE ( 'creator' ) ;
#62 = EDGE_LOOP ( 'NONE', ( #51 ) ) ;
#63 = CARTESIAN_POINT ( 'NONE',  ( 0.0000000000000000000, 0.0000000000000000000, 0.0000000000000000000 ) ) ;
#64 = CARTESIAN_POINT ( 'NONE',  ( 3.491481338843115606E-15, 6.500000000000005329, 0.9999999999999950040 ) ) ;
#65 = VERTEX_POINT ( 'NONE', #98 ) ;
#66 = PLANE ( 'NONE',  #7 ) ;
#67 = EDGE_CURVE ( 'NONE', #135, #135, #74, .T. ) ;
#68 = APPROVAL_DATE_TIME ( #70, #136 ) ;
#69 = AXIS2_PLACEMENT_3D ( 'NONE', #10, #144, #75 ) ;
#70 = DATE_AND_TIME ( #163, #82 ) ;
#71 = PRODUCT_DEFINITION ( 'UNKNOWN', '', #1, #162 ) ;
#72 = DIRECTION ( 'NONE',  ( 4.275831445896957731E-31, 1.000000000000000000, 1.224646799147352961E-16 ) ) ;
#73 = ORIENTED_EDGE ( 'NONE', *, *, #109, .F. ) ;
#74 = CIRCLE ( 'NONE', #69, 25.00000000000000000 ) ;
#75 = DIRECTION ( 'NONE',  ( 4.314083075427408311E-31, 1.000000000000000000, 1.214306433183764966E-16 ) ) ;
#76 = ORIENTED_EDGE ( 'NONE', *, *, #153, .T. ) ;
#77 = PERSON_AND_ORGANIZATION_ROLE ( 'creator' ) ;
#78 = CARTESIAN_POINT ( 'NONE',  ( 3.491481338843122706E-15, 25.00000000000000000, 0.9999999999999970024 ) ) ;
#79 = PRODUCT_RELATED_PRODUCT_CATEGORY ( 'detail', '', ( #100 ) ) ;
#80 = DIRECTION ( 'NONE',  ( 4.275831445896957731E-31, 1.000000000000000000, 1.224646799147352961E-16 ) ) ;
#81 = COORDINATED_UNIVERSAL_TIME_OFFSET ( 1, 0, .AHEAD. ) ;
#82 = LOCAL_TIME ( 10, 13, 26.00000000000000000, #48 ) ;
#83 = CALENDAR_DATE ( 2021, 7, 12 ) ;
#84 = LOCAL_TIME ( 10, 13, 26.00000000000000000, #87 ) ;
#85 = APPLICATION_CONTEXT ( 'configuration controlled 3d designs of mechanical parts and assemblies' ) ;
#86 = CC_DESIGN_DATE_AND_TIME_ASSIGNMENT ( #132, #157, ( #71 ) ) ;
#87 = COORDINATED_UNIVERSAL_TIME_OFFSET ( 1, 0, .AHEAD. ) ;
#88 = EDGE_LOOP ( 'NONE', ( #102 ) ) ;
#89 = PERSON_AND_ORGANIZATION ( #155, #113 ) ;
#90 = APPROVAL_STATUS ( 'not_yet_approved' ) ;
#91 = DIRECTION ( 'NONE',  ( 4.275831445896957731E-31, 1.000000000000000000, 1.224646799147352961E-16 ) ) ;
#92 = CIRCLE ( 'NONE', #16, 6.500000000000005329 ) ;
#93 = CLOSED_SHELL ( 'NONE', ( #158, #36, #124, #28 ) ) ;
#94 = CC_DESIGN_PERSON_AND_ORGANIZATION_ASSIGNMENT ( #40, #13, ( #30 ) ) ;
#95 = APPLICATION_PROTOCOL_DEFINITION ( 'international standard', 'config_control_design', 1994, #55 ) ;
#96 = LOCAL_TIME ( 10, 13, 26.00000000000000000, #29 ) ;
#97 =( NAMED_UNIT ( * ) SI_UNIT ( $, .STERADIAN. ) SOLID_ANGLE_UNIT ( ) );
#98 = CARTESIAN_POINT ( 'NONE',  ( 0.0000000000000000000, 6.499999999999999112, 0.0000000000000000000 ) ) ;
#99 = MECHANICAL_CONTEXT ( 'NONE', #55, 'mechanical' ) ;
#100 = PRODUCT ( '59024', '59024', '', ( #99 ) ) ;
#101 = AXIS2_PLACEMENT_3D ( 'NONE', #6, #5, #80 ) ;
#102 = ORIENTED_EDGE ( 'NONE', *, *, #67, .F. ) ;
#103 = EDGE_LOOP ( 'NONE', ( #142 ) ) ;
#104 = AXIS2_PLACEMENT_3D ( 'NONE', #106, #41, #91 ) ;
#105 = COORDINATED_UNIVERSAL_TIME_OFFSET ( 1, 0, .AHEAD. ) ;
#106 = CARTESIAN_POINT ( 'NONE',  ( -2.779290439833021956E-30, 9.748438587302068977E-32, -7.960204194457792519E-16 ) ) ;
#107 = LOCAL_TIME ( 10, 13, 26.00000000000000000, #105 ) ;
#108 = DIRECTION ( 'NONE',  ( 1.000000000000000000, 0.0000000000000000000, 0.0000000000000000000 ) ) ;
#109 = EDGE_CURVE ( 'NONE', #133, #133, #58, .T. ) ;
#110 = PERSON_AND_ORGANIZATION ( #155, #113 ) ;
#111 = DIRECTION ( 'NONE',  ( -4.275831445896957731E-31, -1.000000000000000000, -1.224646799147352961E-16 ) ) ;
#112 = PERSON_AND_ORGANIZATION ( #155, #113 ) ;
#113 = ORGANIZATION ( 'UNSPECIFIED', 'UNSPECIFIED', '' ) ;
#114 = APPROVAL ( #90, 'UNSPECIFIED' ) ;
#115 = AXIS2_PLACEMENT_3D ( 'NONE', #151, #52, #139 ) ;
#116 = CC_DESIGN_SECURITY_CLASSIFICATION ( #30, ( #1 ) ) ;
#117 = FACE_OUTER_BOUND ( 'NONE', #62, .T. ) ;
#118 = DIRECTION ( 'NONE',  ( 3.491481338843133355E-15, -1.224646799147352961E-16, 1.000000000000000000 ) ) ;
#119 = PLANE ( 'NONE',  #101 ) ;
#120 = CC_DESIGN_APPROVAL ( #9, ( #71 ) ) ;
#121 = APPROVAL_DATE_TIME ( #33, #9 ) ;
#122 = PRODUCT_DEFINITION_SHAPE ( 'NONE', 'NONE',  #71 ) ;
#123 = APPROVAL_STATUS ( 'not_yet_approved' ) ;
#124 = ADVANCED_FACE ( 'NONE', ( #47, #54 ), #66, .T. ) ;
#125 = CC_DESIGN_DATE_AND_TIME_ASSIGNMENT ( #25, #127, ( #30 ) ) ;
#126 = APPROVAL_ROLE ( '' ) ;
#127 = DATE_TIME_ROLE ( 'classification_date' ) ;
#128 = PERSON_AND_ORGANIZATION ( #155, #113 ) ;
#129 = FACE_OUTER_BOUND ( 'NONE', #26, .T. ) ;
#130 = CARTESIAN_POINT ( 'NONE',  ( -2.137915722948478988E-29, 7.498798913309286725E-31, -6.123233995736765296E-15 ) ) ;
#131 = EDGE_LOOP ( 'NONE', ( #150 ) ) ;
#132 = DATE_AND_TIME ( #83, #22 ) ;
#133 = VERTEX_POINT ( 'NONE', #17 ) ;
#134 = APPROVAL_DATE_TIME ( #11, #114 ) ;
#135 = VERTEX_POINT ( 'NONE', #78 ) ;
#136 = APPROVAL ( #123, 'UNSPECIFIED' ) ;
#137 = APPROVAL_PERSON_ORGANIZATION ( #35, #136, #126 ) ;
#138 = CALENDAR_DATE ( 2021, 7, 12 ) ;
#139 = DIRECTION ( 'NONE',  ( 4.275831445896956855E-31, 1.000000000000000000, 1.224646799147352961E-16 ) ) ;
#140 = PERSON_AND_ORGANIZATION_ROLE ( 'design_supplier' ) ;
#141 = CC_DESIGN_PERSON_AND_ORGANIZATION_ASSIGNMENT ( #89, #140, ( #1 ) ) ;
#142 = ORIENTED_EDGE ( 'NONE', *, *, #67, .T. ) ;
#143 = AXIS2_PLACEMENT_3D ( 'NONE', #53, #57, #108 ) ;
#144 = DIRECTION ( 'NONE',  ( -3.491481338843133355E-15, 1.224646799147352961E-16, -1.000000000000000000 ) ) ;
#145 = EDGE_LOOP ( 'NONE', ( #76 ) ) ;
#146 = DIRECTION ( 'NONE',  ( 4.275831445896957731E-31, 1.000000000000000000, 1.224646799147352961E-16 ) ) ;
#147 = AXIS2_PLACEMENT_3D ( 'NONE', #130, #14, #146 ) ;
#148 = CALENDAR_DATE ( 2021, 7, 12 ) ;
#149 = APPROVAL_PERSON_ORGANIZATION ( #8, #114, #38 ) ;
#150 = ORIENTED_EDGE ( 'NONE', *, *, #44, .T. ) ;
#151 = CARTESIAN_POINT ( 'NONE',  ( 0.0000000000000000000, 0.0000000000000000000, 0.0000000000000000000 ) ) ;
#152 = FACE_OUTER_BOUND ( 'NONE', #131, .T. ) ;
#153 = EDGE_CURVE ( 'NONE', #46, #46, #92, .T. ) ;
#154 = CC_DESIGN_APPROVAL ( #136, ( #1 ) ) ;
#155 = PERSON ( 'UNSPECIFIED', 'UNSPECIFIED', 'UNSPECIFIED', ('UNSPECIFIED'), ('UNSPECIFIED'), ('UNSPECIFIED') ) ;
#156 = DIRECTION ( 'NONE',  ( 4.740750632337807625E-31, 1.000000000000000000, 1.334402673828312107E-16 ) ) ;
#157 = DATE_TIME_ROLE ( 'creation_date' ) ;
#158 = ADVANCED_FACE ( 'NONE', ( #31, #45 ), #119, .T. ) ;
#159 = DIRECTION ( 'NONE',  ( -3.491481338843133355E-15, 1.224646799147352961E-16, -1.000000000000000000 ) ) ;
#160 = APPROVAL_STATUS ( 'not_yet_approved' ) ;
#161 =( LENGTH_UNIT ( ) NAMED_UNIT ( * ) SI_UNIT ( .MILLI., .METRE. ) );
#162 = DESIGN_CONTEXT ( 'detailed design', #85, 'design' ) ;
#163 = CALENDAR_DATE ( 2021, 7, 12 ) ;
#164 = APPROVAL_PERSON_ORGANIZATION ( #110, #9, #32 ) ;
#165 = CIRCLE ( 'NONE', #104, 6.499999999999999112 ) ;
#166 = SECURITY_CLASSIFICATION_LEVEL ( 'unclassified' ) ;
#167 = FACE_OUTER_BOUND ( 'NONE', #103, .T. ) ;
#168 = CC_DESIGN_PERSON_AND_ORGANIZATION_ASSIGNMENT ( #112, #77, ( #71 ) ) ;
#169 = EDGE_LOOP ( 'NONE', ( #39 ) ) ;
ENDSEC;
END-ISO-10303-21;
