ISO-10303-21;
HEADER;
FILE_DESCRIPTION (( 'STEP AP203' ),
    '1' );
FILE_NAME ('58925.step',
    '2021-10-06T09:23:03',
    ( '' ),
    ( '' ),
    'SwSTEP 2.0',
    'SolidWorks 2019',
    '' );
FILE_SCHEMA (( 'CONFIG_CONTROL_DESIGN' ));
ENDSEC;

DATA;
#1 = ORIENTED_EDGE ( 'NONE', *, *, #175, .T. ) ;
#2 = CIRCLE ( 'NONE', #163, 0.2249999999999968414 ) ;
#3 = CC_DESIGN_DATE_AND_TIME_ASSIGNMENT ( #48, #183, ( #155 ) ) ;
#4 = CARTESIAN_POINT ( 'NONE',  ( 2.094888803305880013E-14, -7.347880794884119736E-16, 6.000000000000000000 ) ) ;
#5 = CALENDAR_DATE ( 2021, 6, 10 ) ;
#6 = APPROVAL_DATE_TIME ( #38, #188 ) ;
#7 = APPLICATION_PROTOCOL_DEFINITION ( 'international standard', 'config_control_design', 1994, #14 ) ;
#8 = EDGE_CURVE ( 'NONE', #40, #40, #2, .T. ) ;
#9 = DATE_AND_TIME ( #135, #66 ) ;
#10 = AXIS2_PLACEMENT_3D ( 'NONE', #145, #177, #110 ) ;
#11 = CARTESIAN_POINT ( 'NONE',  ( 2.094888803305880013E-14, -7.347880794884119736E-16, 6.000000000000000000 ) ) ;
#12 = CARTESIAN_POINT ( 'NONE',  ( 2.094888803305880013E-14, 1.687229755494555940E-33, 6.000000000000000000 ) ) ;
#13 = COORDINATED_UNIVERSAL_TIME_OFFSET ( 1, 0, .AHEAD. ) ;
#14 = APPLICATION_CONTEXT ( 'configuration controlled 3d designs of mechanical parts and assemblies' ) ;
#15 = CARTESIAN_POINT ( 'NONE',  ( 4.535567304416163798E-16, -1.590862858087353100E-17, 0.1299038105676651733 ) ) ;
#16 = ORIENTED_EDGE ( 'NONE', *, *, #8, .F. ) ;
#17 = AXIS2_PLACEMENT_3D ( 'NONE', #81, #65, #141 ) ;
#18 = DIRECTION ( 'NONE',  ( -3.491481338843133355E-15, 1.224646799147353207E-16, -1.000000000000000000 ) ) ;
#19 = ADVANCED_FACE ( 'NONE', ( #34 ), #197, .T. ) ;
#20 = APPROVAL_PERSON_ORGANIZATION ( #132, #98, #194 ) ;
#21 = VERTEX_POINT ( 'NONE', #76 ) ;
#22 = DIRECTION ( 'NONE',  ( 4.275831445896958607E-31, 1.000000000000000000, 1.224646799147352961E-16 ) ) ;
#23 = CARTESIAN_POINT ( 'NONE',  ( 0.0000000000000000000, 0.0000000000000000000, 0.0000000000000000000 ) ) ;
#24 = PRODUCT_RELATED_PRODUCT_CATEGORY ( 'detail', '', ( #191 ) ) ;
#25 = APPROVAL_ROLE ( '' ) ;
#26 = VERTEX_POINT ( 'NONE', #90 ) ;
#27 = DIRECTION ( 'NONE',  ( -4.275831445896958607E-31, -1.000000000000000000, -1.224646799147353207E-16 ) ) ;
#28 = AXIS2_PLACEMENT_3D ( 'NONE', #68, #67, #121 ) ;
#29 = DIRECTION ( 'NONE',  ( -3.491481338843133355E-15, 1.224646799147353207E-16, -1.000000000000000000 ) ) ;
#30 = CALENDAR_DATE ( 2021, 6, 10 ) ;
#31 = PERSON_AND_ORGANIZATION ( #156, #168 ) ;
#32 = PRODUCT_DEFINITION_FORMATION_WITH_SPECIFIED_SOURCE ( 'ANY', '', #191, .NOT_KNOWN. ) ;
#33 = EDGE_LOOP ( 'NONE', ( #16 ) ) ;
#34 = FACE_OUTER_BOUND ( 'NONE', #49, .T. ) ;
#35 = CONICAL_SURFACE ( 'NONE', #75, 0.1249999999999989175, 0.7853981633974688181 ) ;
#36 = APPLICATION_CONTEXT ( 'configuration controlled 3d designs of mechanical parts and assemblies' ) ;
#37 = CC_DESIGN_PERSON_AND_ORGANIZATION_ASSIGNMENT ( #104, #41, ( #155 ) ) ;
#38 = DATE_AND_TIME ( #63, #181 ) ;
#39 = AXIS2_PLACEMENT_3D ( 'NONE', #15, #69, #142 ) ;
#40 = VERTEX_POINT ( 'NONE', #102 ) ;
#41 = PERSON_AND_ORGANIZATION_ROLE ( 'classification_officer' ) ;
#42 = FACE_OUTER_BOUND ( 'NONE', #173, .T. ) ;
#43 = SECURITY_CLASSIFICATION_LEVEL ( 'unclassified' ) ;
#44 = ADVANCED_FACE ( 'NONE', ( #84, #159 ), #129, .T. ) ;
#45 = DIRECTION ( 'NONE',  ( 0.0000000000000000000, 1.000000000000000000, 0.0000000000000000000 ) ) ;
#46 = CARTESIAN_POINT ( 'NONE',  ( 1.047444401652940007E-13, 0.1249999999999952260, 30.00000000000000000 ) ) ;
#47 = DIRECTION ( 'NONE',  ( -3.491481338843133355E-15, 1.224646799147353207E-16, -1.000000000000000000 ) ) ;
#48 = DATE_AND_TIME ( #201, #107 ) ;
#49 = EDGE_LOOP ( 'NONE', ( #91 ) ) ;
#50 = UNCERTAINTY_MEASURE_WITH_UNIT (LENGTH_MEASURE( 1.000000000000000082E-05 ), #77, 'distance_accuracy_value', 'NONE');
#51 = DATE_TIME_ROLE ( 'creation_date' ) ;
#52 = DIRECTION ( 'NONE',  ( -3.491481338843133355E-15, 1.224646799147353207E-16, -1.000000000000000000 ) ) ;
#53 = FACE_OUTER_BOUND ( 'NONE', #58, .T. ) ;
#54 = PERSON_AND_ORGANIZATION ( #156, #168 ) ;
#55 = CARTESIAN_POINT ( 'NONE',  ( 4.535567304416163798E-16, -1.590862858087353100E-17, 0.1299038105676651733 ) ) ;
#56 = APPROVAL_STATUS ( 'not_yet_approved' ) ;
#57 = ORIENTED_EDGE ( 'NONE', *, *, #138, .T. ) ;
#58 = EDGE_LOOP ( 'NONE', ( #88 ) ) ;
#59 = CC_DESIGN_PERSON_AND_ORGANIZATION_ASSIGNMENT ( #124, #108, ( #32 ) ) ;
#60 = EDGE_LOOP ( 'NONE', ( #57 ) ) ;
#61 = FACE_OUTER_BOUND ( 'NONE', #158, .T. ) ;
#62 = MANIFOLD_SOLID_BREP ( 'Corps-Déplacer/Copier1[1]', #137 ) ;
#63 = CALENDAR_DATE ( 2021, 6, 10 ) ;
#64 = MANIFOLD_SOLID_BREP ( 'Corps-Déplacer/Copier1[2]', #179 ) ;
#65 = DIRECTION ( 'NONE',  ( 3.491481338843133355E-15, -1.224646799147353207E-16, 1.000000000000000000 ) ) ;
#66 = LOCAL_TIME ( 11, 23, 3.000000000000000000, #165 ) ;
#67 = DIRECTION ( 'NONE',  ( -3.491481338843133355E-15, 1.224646799147353207E-16, -1.000000000000000000 ) ) ;
#68 = CARTESIAN_POINT ( 'NONE',  ( 1.047444401652940007E-13, 9.373498641635975428E-34, 30.00000000000000000 ) ) ;
#69 = DIRECTION ( 'NONE',  ( 3.491481338843133355E-15, -1.224646799147353207E-16, 1.000000000000000000 ) ) ;
#70 = CC_DESIGN_APPROVAL ( #188, ( #89 ) ) ;
#71 = EDGE_LOOP ( 'NONE', ( #203 ) ) ;
#72 = SHAPE_DEFINITION_REPRESENTATION ( #83, #128 ) ;
#73 = PERSON_AND_ORGANIZATION ( #156, #168 ) ;
#74 = DIRECTION ( 'NONE',  ( 0.0000000000000000000, 1.000000000000000000, 0.0000000000000000000 ) ) ;
#75 = AXIS2_PLACEMENT_3D ( 'NONE', #127, #18, #74 ) ;
#76 = CARTESIAN_POINT ( 'NONE',  ( 2.094888803305880013E-14, 0.2249999999999961198, 6.000000000000000000 ) ) ;
#77 =( LENGTH_UNIT ( ) NAMED_UNIT ( * ) SI_UNIT ( .MILLI., .METRE. ) );
#78 = DIRECTION ( 'NONE',  ( -3.491481338843133355E-15, 1.224646799147353207E-16, -1.000000000000000000 ) ) ;
#79 = AXIS2_PLACEMENT_3D ( 'NONE', #55, #29, #150 ) ;
#80 = DIRECTION ( 'NONE',  ( 0.0000000000000000000, 1.000000000000000000, 0.0000000000000000000 ) ) ;
#81 = CARTESIAN_POINT ( 'NONE',  ( 2.094888803305880013E-14, 1.687229755494555940E-33, 6.000000000000000000 ) ) ;
#82 = EDGE_CURVE ( 'NONE', #202, #202, #174, .T. ) ;
#83 = PRODUCT_DEFINITION_SHAPE ( 'NONE', 'NONE',  #89 ) ;
#84 = FACE_OUTER_BOUND ( 'NONE', #161, .T. ) ;
#85 = LOCAL_TIME ( 11, 23, 3.000000000000000000, #167 ) ;
#86 =( GEOMETRIC_REPRESENTATION_CONTEXT ( 3 ) GLOBAL_UNCERTAINTY_ASSIGNED_CONTEXT ( ( #50 ) ) GLOBAL_UNIT_ASSIGNED_CONTEXT ( ( #77, #114, #99 ) ) REPRESENTATION_CONTEXT ( 'NONE', 'WORKASPACE' ) );
#87 = CC_DESIGN_APPROVAL ( #98, ( #32 ) ) ;
#88 = ORIENTED_EDGE ( 'NONE', *, *, #169, .F. ) ;
#89 = PRODUCT_DEFINITION ( 'UNKNOWN', '', #32, #93 ) ;
#90 = CARTESIAN_POINT ( 'NONE',  ( 1.043952920314096936E-13, 0.2249999999999952871, 29.90000000000000213 ) ) ;
#91 = ORIENTED_EDGE ( 'NONE', *, *, #169, .T. ) ;
#92 = DIRECTION ( 'NONE',  ( -3.491481338843133355E-15, 1.224646799147353207E-16, -1.000000000000000000 ) ) ;
#93 = DESIGN_CONTEXT ( 'detailed design', #14, 'design' ) ;
#94 = ADVANCED_FACE ( 'NONE', ( #53, #61 ), #193, .T. ) ;
#95 = CARTESIAN_POINT ( 'NONE',  ( 1.047444401652940007E-13, -3.673940397442059178E-15, 30.00000000000000000 ) ) ;
#96 = PERSON_AND_ORGANIZATION ( #156, #168 ) ;
#97 = AXIS2_PLACEMENT_3D ( 'NONE', #23, #52, #22 ) ;
#98 = APPROVAL ( #111, 'UNSPECIFIED' ) ;
#99 =( NAMED_UNIT ( * ) SI_UNIT ( $, .STERADIAN. ) SOLID_ANGLE_UNIT ( ) );
#100 = PERSON_AND_ORGANIZATION_ROLE ( 'creator' ) ;
#101 = LOCAL_TIME ( 11, 23, 3.000000000000000000, #106 ) ;
#102 = CARTESIAN_POINT ( 'NONE',  ( 2.094888803305880013E-14, 0.2249999999999961198, 6.000000000000000000 ) ) ;
#103 = PLANE ( 'NONE',  #28 ) ;
#104 = PERSON_AND_ORGANIZATION ( #156, #168 ) ;
#105 = AXIS2_PLACEMENT_3D ( 'NONE', #12, #184, #27 ) ;
#106 = COORDINATED_UNIVERSAL_TIME_OFFSET ( 1, 0, .AHEAD. ) ;
#107 = LOCAL_TIME ( 11, 23, 3.000000000000000000, #13 ) ;
#108 = PERSON_AND_ORGANIZATION_ROLE ( 'creator' ) ;
#109 = AXIS2_PLACEMENT_3D ( 'NONE', #166, #131, #112 ) ;
#110 = DIRECTION ( 'NONE',  ( 4.275831445896958607E-31, 1.000000000000000000, 1.224646799147353207E-16 ) ) ;
#111 = APPROVAL_STATUS ( 'not_yet_approved' ) ;
#112 = DIRECTION ( 'NONE',  ( 1.000000000000000000, 0.0000000000000000000, 0.0000000000000000000 ) ) ;
#113 = CC_DESIGN_PERSON_AND_ORGANIZATION_ASSIGNMENT ( #54, #100, ( #89 ) ) ;
#114 =( NAMED_UNIT ( * ) PLANE_ANGLE_UNIT ( ) SI_UNIT ( $, .RADIAN. ) );
#115 = AXIS2_PLACEMENT_3D ( 'NONE', #190, #152, #45 ) ;
#116 = FACE_BOUND ( 'NONE', #125, .T. ) ;
#117 = PERSON_AND_ORGANIZATION_ROLE ( 'design_owner' ) ;
#118 = CIRCLE ( 'NONE', #148, 0.2249999999999968414 ) ;
#119 = CC_DESIGN_SECURITY_CLASSIFICATION ( #155, ( #32 ) ) ;
#120 = CC_DESIGN_PERSON_AND_ORGANIZATION_ASSIGNMENT ( #73, #151, ( #32 ) ) ;
#121 = DIRECTION ( 'NONE',  ( 4.275831445896958607E-31, 1.000000000000000000, 1.224646799147353207E-16 ) ) ;
#122 = ORIENTED_EDGE ( 'NONE', *, *, #82, .T. ) ;
#123 = ORIENTED_EDGE ( 'NONE', *, *, #175, .F. ) ;
#124 = PERSON_AND_ORGANIZATION ( #156, #168 ) ;
#125 = EDGE_LOOP ( 'NONE', ( #122 ) ) ;
#126 = ADVANCED_FACE ( 'NONE', ( #146, #116 ), #35, .T. ) ;
#127 = CARTESIAN_POINT ( 'NONE',  ( 1.047444401652940007E-13, -3.673940397442059178E-15, 30.00000000000000000 ) ) ;
#128 = ADVANCED_BREP_SHAPE_REPRESENTATION ( '58925', ( #62, #64, #109 ), #86 ) ;
#129 = CYLINDRICAL_SURFACE ( 'NONE', #10, 0.2249999999999978684 ) ;
#130 = APPROVAL_PERSON_ORGANIZATION ( #31, #136, #160 ) ;
#131 = DIRECTION ( 'NONE',  ( 0.0000000000000000000, 0.0000000000000000000, 1.000000000000000000 ) ) ;
#132 = PERSON_AND_ORGANIZATION ( #156, #168 ) ;
#133 = CC_DESIGN_PERSON_AND_ORGANIZATION_ASSIGNMENT ( #96, #117, ( #191 ) ) ;
#134 = DIRECTION ( 'NONE',  ( 0.0000000000000000000, 1.000000000000000000, 0.0000000000000000000 ) ) ;
#135 = CALENDAR_DATE ( 2021, 6, 10 ) ;
#136 = APPROVAL ( #56, 'UNSPECIFIED' ) ;
#137 = CLOSED_SHELL ( 'NONE', ( #149, #44, #126, #185 ) ) ;
#138 = EDGE_CURVE ( 'NONE', #26, #26, #182, .T. ) ;
#139 = CC_DESIGN_DATE_AND_TIME_ASSIGNMENT ( #192, #51, ( #89 ) ) ;
#140 = FACE_OUTER_BOUND ( 'NONE', #33, .T. ) ;
#141 = DIRECTION ( 'NONE',  ( -4.275831445896958607E-31, -1.000000000000000000, -1.224646799147353207E-16 ) ) ;
#142 = DIRECTION ( 'NONE',  ( -4.279844320860593210E-31, -1.000000000000000000, -1.204669080539468819E-16 ) ) ;
#143 = EDGE_LOOP ( 'NONE', ( #1 ) ) ;
#144 = APPROVAL_PERSON_ORGANIZATION ( #180, #188, #25 ) ;
#145 = CARTESIAN_POINT ( 'NONE',  ( 0.0000000000000000000, 0.0000000000000000000, 0.0000000000000000000 ) ) ;
#146 = FACE_OUTER_BOUND ( 'NONE', #71, .T. ) ;
#147 = APPROVAL_STATUS ( 'not_yet_approved' ) ;
#148 = AXIS2_PLACEMENT_3D ( 'NONE', #11, #78, #80 ) ;
#149 = ADVANCED_FACE ( 'NONE', ( #153 ), #170, .F. ) ;
#150 = DIRECTION ( 'NONE',  ( 4.279844320860593210E-31, 1.000000000000000000, 1.204669080539468819E-16 ) ) ;
#151 = PERSON_AND_ORGANIZATION_ROLE ( 'design_supplier' ) ;
#152 = DIRECTION ( 'NONE',  ( -3.491481338843133355E-15, 1.224646799147353207E-16, -1.000000000000000000 ) ) ;
#153 = FACE_OUTER_BOUND ( 'NONE', #143, .T. ) ;
#154 = CIRCLE ( 'NONE', #79, 0.2249999999999963696 ) ;
#155 = SECURITY_CLASSIFICATION ( '', '', #43 ) ;
#156 = PERSON ( 'UNSPECIFIED', 'UNSPECIFIED', 'UNSPECIFIED', ('UNSPECIFIED'), ('UNSPECIFIED'), ('UNSPECIFIED') ) ;
#157 = DATE_AND_TIME ( #30, #101 ) ;
#158 = EDGE_LOOP ( 'NONE', ( #176 ) ) ;
#159 = FACE_OUTER_BOUND ( 'NONE', #60, .T. ) ;
#160 = APPROVAL_ROLE ( '' ) ;
#161 = EDGE_LOOP ( 'NONE', ( #123 ) ) ;
#162 = CARTESIAN_POINT ( 'NONE',  ( 4.535567304416164784E-16, 0.2249999999999963418, 0.1299038105676652011 ) ) ;
#163 = AXIS2_PLACEMENT_3D ( 'NONE', #4, #47, #189 ) ;
#164 = VERTEX_POINT ( 'NONE', #162 ) ;
#165 = COORDINATED_UNIVERSAL_TIME_OFFSET ( 1, 0, .AHEAD. ) ;
#166 = CARTESIAN_POINT ( 'NONE',  ( 0.0000000000000000000, 0.0000000000000000000, 0.0000000000000000000 ) ) ;
#167 = COORDINATED_UNIVERSAL_TIME_OFFSET ( 1, 0, .AHEAD. ) ;
#168 = ORGANIZATION ( 'UNSPECIFIED', 'UNSPECIFIED', '' ) ;
#169 = EDGE_CURVE ( 'NONE', #164, #164, #154, .T. ) ;
#170 = PLANE ( 'NONE',  #105 ) ;
#171 = PLANE ( 'NONE',  #17 ) ;
#172 = APPROVAL_DATE_TIME ( #157, #136 ) ;
#173 = EDGE_LOOP ( 'NONE', ( #186 ) ) ;
#174 = CIRCLE ( 'NONE', #187, 0.1249999999999989175 ) ;
#175 = EDGE_CURVE ( 'NONE', #21, #21, #118, .T. ) ;
#176 = ORIENTED_EDGE ( 'NONE', *, *, #8, .T. ) ;
#177 = DIRECTION ( 'NONE',  ( -3.491481338843133355E-15, 1.224646799147353207E-16, -1.000000000000000000 ) ) ;
#178 = MECHANICAL_CONTEXT ( 'NONE', #36, 'mechanical' ) ;
#179 = CLOSED_SHELL ( 'NONE', ( #19, #94, #196 ) ) ;
#180 = PERSON_AND_ORGANIZATION ( #156, #168 ) ;
#181 = LOCAL_TIME ( 11, 23, 3.000000000000000000, #199 ) ;
#182 = CIRCLE ( 'NONE', #115, 0.2249999999999989231 ) ;
#183 = DATE_TIME_ROLE ( 'classification_date' ) ;
#184 = DIRECTION ( 'NONE',  ( 3.491481338843133355E-15, -1.224646799147353207E-16, 1.000000000000000000 ) ) ;
#185 = ADVANCED_FACE ( 'NONE', ( #42 ), #103, .F. ) ;
#186 = ORIENTED_EDGE ( 'NONE', *, *, #82, .F. ) ;
#187 = AXIS2_PLACEMENT_3D ( 'NONE', #95, #92, #134 ) ;
#188 = APPROVAL ( #147, 'UNSPECIFIED' ) ;
#189 = DIRECTION ( 'NONE',  ( 0.0000000000000000000, 1.000000000000000000, 0.0000000000000000000 ) ) ;
#190 = CARTESIAN_POINT ( 'NONE',  ( 1.043952920314096936E-13, -3.661693929450586610E-15, 29.90000000000000213 ) ) ;
#191 = PRODUCT ( '58925', '58925', '', ( #178 ) ) ;
#192 = DATE_AND_TIME ( #5, #85 ) ;
#193 = CYLINDRICAL_SURFACE ( 'NONE', #97, 0.2249999999999966194 ) ;
#194 = APPROVAL_ROLE ( '' ) ;
#195 = APPLICATION_PROTOCOL_DEFINITION ( 'international standard', 'config_control_design', 1994, #36 ) ;
#196 = ADVANCED_FACE ( 'NONE', ( #140 ), #171, .T. ) ;
#197 = CONICAL_SURFACE ( 'NONE', #39, 0.2249999999999963696, 1.047197551196592746 ) ;
#198 = APPROVAL_DATE_TIME ( #9, #98 ) ;
#199 = COORDINATED_UNIVERSAL_TIME_OFFSET ( 1, 0, .AHEAD. ) ;
#200 = CC_DESIGN_APPROVAL ( #136, ( #155 ) ) ;
#201 = CALENDAR_DATE ( 2021, 6, 10 ) ;
#202 = VERTEX_POINT ( 'NONE', #46 ) ;
#203 = ORIENTED_EDGE ( 'NONE', *, *, #138, .F. ) ;
ENDSEC;
END-ISO-10303-21;
