ISO-10303-21;
HEADER;
FILE_DESCRIPTION (( 'STEP AP203' ),
    '1' );
FILE_NAME ('58867.step',
    '2021-10-15T13:34:59',
    ( '' ),
    ( '' ),
    'SwSTEP 2.0',
    'SolidWorks 2019',
    '' );
FILE_SCHEMA (( 'CONFIG_CONTROL_DESIGN' ));
ENDSEC;

DATA;
#1 = EDGE_LOOP ( 'NONE', ( #99 ) ) ;
#2 = CARTESIAN_POINT ( 'NONE',  ( 4.189777606611760026E-14, -1.469576158976823947E-15, 12.00000000000000000 ) ) ;
#3 = CARTESIAN_POINT ( 'NONE',  ( 4.189777606611760026E-14, 6.149015108913570075E-33, 12.00000000000000000 ) ) ;
#4 = CC_DESIGN_DATE_AND_TIME_ASSIGNMENT ( #186, #174, ( #177 ) ) ;
#5 = AXIS2_PLACEMENT_3D ( 'NONE', #116, #69, #161 ) ;
#6 = FACE_OUTER_BOUND ( 'NONE', #38, .T. ) ;
#7 = CYLINDRICAL_SURFACE ( 'NONE', #96, 0.8199999999999960654 ) ;
#8 = MANIFOLD_SOLID_BREP ( 'Corps-Déplacer/Copier1[1]', #122 ) ;
#9 = VERTEX_POINT ( 'NONE', #107 ) ;
#10 = MANIFOLD_SOLID_BREP ( 'Corps-Déplacer/Copier1[2]', #149 ) ;
#11 = AXIS2_PLACEMENT_3D ( 'NONE', #43, #78, #45 ) ;
#12 = ADVANCED_BREP_SHAPE_REPRESENTATION ( '58867', ( #8, #10, #5 ), #111 ) ;
#13 = PERSON_AND_ORGANIZATION_ROLE ( 'design_owner' ) ;
#14 = LOCAL_TIME ( 15, 34, 59.00000000000000000, #33 ) ;
#15 = APPROVAL_DATE_TIME ( #83, #153 ) ;
#16 = CALENDAR_DATE ( 2021, 15, 10 ) ;
#17 = APPROVAL_PERSON_ORGANIZATION ( #113, #114, #19 ) ;
#18 = CC_DESIGN_PERSON_AND_ORGANIZATION_ASSIGNMENT ( #157, #85, ( #171 ) ) ;
#19 = APPROVAL_ROLE ( '' ) ;
#20 = EDGE_LOOP ( 'NONE', ( #165 ) ) ;
#21 = DIRECTION ( 'NONE',  ( 0.0000000000000000000, 1.000000000000000000, 0.0000000000000000000 ) ) ;
#22 = CONICAL_SURFACE ( 'NONE', #27, 0.8199999999999952882, 1.221730476396026388 ) ;
#23 = DIRECTION ( 'NONE',  ( 0.0000000000000000000, 1.000000000000000000, 0.0000000000000000000 ) ) ;
#24 = DIRECTION ( 'NONE',  ( -4.697390108261577969E-31, -1.000000000000000000, -1.322197771323793525E-16 ) ) ;
#25 = FACE_OUTER_BOUND ( 'NONE', #102, .T. ) ;
#26 = EDGE_CURVE ( 'NONE', #156, #156, #31, .T. ) ;
#27 = AXIS2_PLACEMENT_3D ( 'NONE', #152, #169, #24 ) ;
#28 = DIRECTION ( 'NONE',  ( -3.491481338843133355E-15, 1.224646799147353207E-16, -1.000000000000000000 ) ) ;
#29 = CARTESIAN_POINT ( 'NONE',  ( 1.042052130284551647E-15, 0.8199999999999952882, 0.2984555920982882582 ) ) ;
#30 = ADVANCED_FACE ( 'NONE', ( #87 ), #59, .T. ) ;
#31 = CIRCLE ( 'NONE', #183, 0.8199999999999968425 ) ;
#32 = DATE_AND_TIME ( #49, #84 ) ;
#33 = COORDINATED_UNIVERSAL_TIME_OFFSET ( 1, 0, .AHEAD. ) ;
#34 = AXIS2_PLACEMENT_3D ( 'NONE', #60, #47, #179 ) ;
#35 = APPROVAL_ROLE ( '' ) ;
#36 = ORIENTED_EDGE ( 'NONE', *, *, #115, .T. ) ;
#37 = LOCAL_TIME ( 15, 34, 59.00000000000000000, #97 ) ;
#38 = EDGE_LOOP ( 'NONE', ( #119 ) ) ;
#39 = CC_DESIGN_PERSON_AND_ORGANIZATION_ASSIGNMENT ( #101, #13, ( #184 ) ) ;
#40 = ORIENTED_EDGE ( 'NONE', *, *, #147, .F. ) ;
#41 = CARTESIAN_POINT ( 'NONE',  ( 1.326762908760390423E-13, 0.5199999999999952438, 38.00000000000000000 ) ) ;
#42 = LOCAL_TIME ( 15, 34, 59.00000000000000000, #125 ) ;
#43 = CARTESIAN_POINT ( 'NONE',  ( 1.326762908760390423E-13, -4.653657836759941941E-15, 38.00000000000000000 ) ) ;
#44 = DIRECTION ( 'NONE',  ( -3.491481338843133355E-15, 1.224646799147353207E-16, -1.000000000000000000 ) ) ;
#45 = DIRECTION ( 'NONE',  ( 0.0000000000000000000, 1.000000000000000000, 0.0000000000000000000 ) ) ;
#46 = CC_DESIGN_APPROVAL ( #153, ( #50 ) ) ;
#47 = DIRECTION ( 'NONE',  ( -3.491481338843133355E-15, 1.224646799147353207E-16, -1.000000000000000000 ) ) ;
#48 = EDGE_CURVE ( 'NONE', #135, #135, #80, .T. ) ;
#49 = CALENDAR_DATE ( 2021, 15, 10 ) ;
#50 = SECURITY_CLASSIFICATION ( '', '', #53 ) ;
#51 = EDGE_CURVE ( 'NONE', #176, #176, #54, .T. ) ;
#52 = PERSON_AND_ORGANIZATION_ROLE ( 'classification_officer' ) ;
#53 = SECURITY_CLASSIFICATION_LEVEL ( 'unclassified' ) ;
#54 = CIRCLE ( 'NONE', #200, 0.8199999999999999512 ) ;
#55 = APPROVAL_DATE_TIME ( #72, #144 ) ;
#56 = CALENDAR_DATE ( 2021, 15, 10 ) ;
#57 = CC_DESIGN_PERSON_AND_ORGANIZATION_ASSIGNMENT ( #118, #170, ( #171 ) ) ;
#58 = EDGE_LOOP ( 'NONE', ( #40 ) ) ;
#59 = PLANE ( 'NONE',  #70 ) ;
#60 = CARTESIAN_POINT ( 'NONE',  ( 0.0000000000000000000, 0.0000000000000000000, 0.0000000000000000000 ) ) ;
#61 =( LENGTH_UNIT ( ) NAMED_UNIT ( * ) SI_UNIT ( .MILLI., .METRE. ) );
#62 = CC_DESIGN_APPROVAL ( #144, ( #177 ) ) ;
#63 = AXIS2_PLACEMENT_3D ( 'NONE', #3, #123, #93 ) ;
#64 = ADVANCED_FACE ( 'NONE', ( #178, #112 ), #106, .T. ) ;
#65 = DIRECTION ( 'NONE',  ( -3.491481338843133355E-15, 1.224646799147353207E-16, -1.000000000000000000 ) ) ;
#66 = PLANE ( 'NONE',  #68 ) ;
#67 = DIRECTION ( 'NONE',  ( -3.491481338843133355E-15, 1.224646799147353207E-16, -1.000000000000000000 ) ) ;
#68 = AXIS2_PLACEMENT_3D ( 'NONE', #121, #138, #110 ) ;
#69 = DIRECTION ( 'NONE',  ( 0.0000000000000000000, 0.0000000000000000000, 1.000000000000000000 ) ) ;
#70 = AXIS2_PLACEMENT_3D ( 'NONE', #104, #120, #79 ) ;
#71 = APPROVAL_DATE_TIME ( #32, #114 ) ;
#72 = DATE_AND_TIME ( #16, #42 ) ;
#73 = ADVANCED_FACE ( 'NONE', ( #167, #25 ), #124, .T. ) ;
#74 = APPROVAL_STATUS ( 'not_yet_approved' ) ;
#75 = EDGE_LOOP ( 'NONE', ( #148 ) ) ;
#76 = CARTESIAN_POINT ( 'NONE',  ( 4.189777606611760026E-14, 0.8199999999999952882, 12.00000000000000000 ) ) ;
#77 = LOCAL_TIME ( 15, 34, 59.00000000000000000, #98 ) ;
#78 = DIRECTION ( 'NONE',  ( -3.491481338843133355E-15, 1.224646799147353207E-16, -1.000000000000000000 ) ) ;
#79 = DIRECTION ( 'NONE',  ( -4.275831445896958607E-31, -1.000000000000000000, -1.224646799147353207E-16 ) ) ;
#80 = CIRCLE ( 'NONE', #175, 0.8199999999999952882 ) ;
#81 = APPLICATION_PROTOCOL_DEFINITION ( 'international standard', 'config_control_design', 1994, #126 ) ;
#82 = CALENDAR_DATE ( 2021, 15, 10 ) ;
#83 = DATE_AND_TIME ( #160, #77 ) ;
#84 = LOCAL_TIME ( 15, 34, 59.00000000000000000, #159 ) ;
#85 = PERSON_AND_ORGANIZATION_ROLE ( 'design_supplier' ) ;
#86 = CARTESIAN_POINT ( 'NONE',  ( 4.189777606611760026E-14, -1.469576158976823947E-15, 12.00000000000000000 ) ) ;
#87 = FACE_OUTER_BOUND ( 'NONE', #1, .T. ) ;
#88 = CIRCLE ( 'NONE', #145, 0.5199999999999999067 ) ;
#89 = ADVANCED_FACE ( 'NONE', ( #139 ), #22, .T. ) ;
#90 = CARTESIAN_POINT ( 'NONE',  ( 1.326762908760390423E-13, -4.653657836759941941E-15, 38.00000000000000000 ) ) ;
#91 = FACE_OUTER_BOUND ( 'NONE', #173, .T. ) ;
#92 = DIRECTION ( 'NONE',  ( 0.0000000000000000000, 1.000000000000000000, 0.0000000000000000000 ) ) ;
#93 = DIRECTION ( 'NONE',  ( -4.275831445896958607E-31, -1.000000000000000000, -1.224646799147353207E-16 ) ) ;
#94 = CARTESIAN_POINT ( 'NONE',  ( 1.316288464743861212E-13, 0.8199999999999952882, 37.69999999999999574 ) ) ;
#95 = CC_DESIGN_PERSON_AND_ORGANIZATION_ASSIGNMENT ( #198, #131, ( #177 ) ) ;
#96 = AXIS2_PLACEMENT_3D ( 'NONE', #195, #67, #181 ) ;
#97 = COORDINATED_UNIVERSAL_TIME_OFFSET ( 1, 0, .AHEAD. ) ;
#98 = COORDINATED_UNIVERSAL_TIME_OFFSET ( 1, 0, .AHEAD. ) ;
#99 = ORIENTED_EDGE ( 'NONE', *, *, #26, .F. ) ;
#100 = APPLICATION_PROTOCOL_DEFINITION ( 'international standard', 'config_control_design', 1994, #137 ) ;
#101 = PERSON_AND_ORGANIZATION ( #127, #190 ) ;
#102 = EDGE_LOOP ( 'NONE', ( #188 ) ) ;
#103 = EDGE_LOOP ( 'NONE', ( #191 ) ) ;
#104 = CARTESIAN_POINT ( 'NONE',  ( 4.189777606611760026E-14, 6.149015108913570075E-33, 12.00000000000000000 ) ) ;
#105 = ADVANCED_FACE ( 'NONE', ( #6 ), #66, .F. ) ;
#106 = CONICAL_SURFACE ( 'NONE', #11, 0.5199999999999999067, 0.7853981633974456145 ) ;
#107 = CARTESIAN_POINT ( 'NONE',  ( 4.189777606611760026E-14, 0.8199999999999952882, 12.00000000000000000 ) ) ;
#108 = DIRECTION ( 'NONE',  ( -3.491481338843133355E-15, 1.224646799147353207E-16, -1.000000000000000000 ) ) ;
#109 = CARTESIAN_POINT ( 'NONE',  ( 1.316288464743861212E-13, -4.616918432785521081E-15, 37.69999999999999574 ) ) ;
#110 = DIRECTION ( 'NONE',  ( 4.275831445896958607E-31, 1.000000000000000000, 1.224646799147353207E-16 ) ) ;
#111 =( GEOMETRIC_REPRESENTATION_CONTEXT ( 3 ) GLOBAL_UNCERTAINTY_ASSIGNED_CONTEXT ( ( #164 ) ) GLOBAL_UNIT_ASSIGNED_CONTEXT ( ( #61, #142, #196 ) ) REPRESENTATION_CONTEXT ( 'NONE', 'WORKASPACE' ) );
#112 = FACE_BOUND ( 'NONE', #202, .T. ) ;
#113 = PERSON_AND_ORGANIZATION ( #127, #190 ) ;
#114 = APPROVAL ( #74, 'UNSPECIFIED' ) ;
#115 = EDGE_CURVE ( 'NONE', #134, #134, #88, .T. ) ;
#116 = CARTESIAN_POINT ( 'NONE',  ( 0.0000000000000000000, 0.0000000000000000000, 0.0000000000000000000 ) ) ;
#117 = APPROVAL_STATUS ( 'not_yet_approved' ) ;
#118 = PERSON_AND_ORGANIZATION ( #127, #190 ) ;
#119 = ORIENTED_EDGE ( 'NONE', *, *, #115, .F. ) ;
#120 = DIRECTION ( 'NONE',  ( 3.491481338843133355E-15, -1.224646799147353207E-16, 1.000000000000000000 ) ) ;
#121 = CARTESIAN_POINT ( 'NONE',  ( 1.326762908760390423E-13, 3.899375434920759715E-33, 38.00000000000000000 ) ) ;
#122 = CLOSED_SHELL ( 'NONE', ( #194, #73, #64, #105 ) ) ;
#123 = DIRECTION ( 'NONE',  ( 3.491481338843133355E-15, -1.224646799147353207E-16, 1.000000000000000000 ) ) ;
#124 = CYLINDRICAL_SURFACE ( 'NONE', #34, 0.8199999999999985079 ) ;
#125 = COORDINATED_UNIVERSAL_TIME_OFFSET ( 1, 0, .AHEAD. ) ;
#126 = APPLICATION_CONTEXT ( 'configuration controlled 3d designs of mechanical parts and assemblies' ) ;
#127 = PERSON ( 'UNSPECIFIED', 'UNSPECIFIED', 'UNSPECIFIED', ('UNSPECIFIED'), ('UNSPECIFIED'), ('UNSPECIFIED') ) ;
#128 = DATE_TIME_ROLE ( 'classification_date' ) ;
#129 = AXIS2_PLACEMENT_3D ( 'NONE', #2, #108, #92 ) ;
#130 = PERSON_AND_ORGANIZATION ( #127, #190 ) ;
#131 = PERSON_AND_ORGANIZATION_ROLE ( 'creator' ) ;
#132 = CIRCLE ( 'NONE', #129, 0.8199999999999968425 ) ;
#133 = EDGE_LOOP ( 'NONE', ( #189 ) ) ;
#134 = VERTEX_POINT ( 'NONE', #41 ) ;
#135 = VERTEX_POINT ( 'NONE', #29 ) ;
#136 = PRODUCT_RELATED_PRODUCT_CATEGORY ( 'detail', '', ( #184 ) ) ;
#137 = APPLICATION_CONTEXT ( 'configuration controlled 3d designs of mechanical parts and assemblies' ) ;
#138 = DIRECTION ( 'NONE',  ( -3.491481338843133355E-15, 1.224646799147353207E-16, -1.000000000000000000 ) ) ;
#139 = FACE_OUTER_BOUND ( 'NONE', #75, .T. ) ;
#140 = APPROVAL_PERSON_ORGANIZATION ( #163, #144, #143 ) ;
#141 = APPROVAL_STATUS ( 'not_yet_approved' ) ;
#142 =( NAMED_UNIT ( * ) PLANE_ANGLE_UNIT ( ) SI_UNIT ( $, .RADIAN. ) );
#143 = APPROVAL_ROLE ( '' ) ;
#144 = APPROVAL ( #141, 'UNSPECIFIED' ) ;
#145 = AXIS2_PLACEMENT_3D ( 'NONE', #90, #28, #151 ) ;
#146 = DIRECTION ( 'NONE',  ( -3.491481338843133355E-15, 1.224646799147353207E-16, -1.000000000000000000 ) ) ;
#147 = EDGE_CURVE ( 'NONE', #9, #9, #132, .T. ) ;
#148 = ORIENTED_EDGE ( 'NONE', *, *, #48, .T. ) ;
#149 = CLOSED_SHELL ( 'NONE', ( #89, #197, #30 ) ) ;
#150 = ORIENTED_EDGE ( 'NONE', *, *, #147, .T. ) ;
#151 = DIRECTION ( 'NONE',  ( 0.0000000000000000000, 1.000000000000000000, 0.0000000000000000000 ) ) ;
#152 = CARTESIAN_POINT ( 'NONE',  ( 1.042052130284551253E-15, -3.655026855507966693E-17, 0.2984555920982881472 ) ) ;
#153 = APPROVAL ( #117, 'UNSPECIFIED' ) ;
#154 = FACE_OUTER_BOUND ( 'NONE', #103, .T. ) ;
#155 = FACE_OUTER_BOUND ( 'NONE', #133, .T. ) ;
#156 = VERTEX_POINT ( 'NONE', #76 ) ;
#157 = PERSON_AND_ORGANIZATION ( #127, #190 ) ;
#158 = CC_DESIGN_SECURITY_CLASSIFICATION ( #50, ( #171 ) ) ;
#159 = COORDINATED_UNIVERSAL_TIME_OFFSET ( 1, 0, .AHEAD. ) ;
#160 = CALENDAR_DATE ( 2021, 15, 10 ) ;
#161 = DIRECTION ( 'NONE',  ( 1.000000000000000000, 0.0000000000000000000, 0.0000000000000000000 ) ) ;
#162 = APPROVAL_PERSON_ORGANIZATION ( #130, #153, #35 ) ;
#163 = PERSON_AND_ORGANIZATION ( #127, #190 ) ;
#164 = UNCERTAINTY_MEASURE_WITH_UNIT (LENGTH_MEASURE( 1.000000000000000082E-05 ), #61, 'distance_accuracy_value', 'NONE');
#165 = ORIENTED_EDGE ( 'NONE', *, *, #51, .F. ) ;
#166 = DIRECTION ( 'NONE',  ( 4.697390108261577969E-31, 1.000000000000000000, 1.322197771323793525E-16 ) ) ;
#167 = FACE_OUTER_BOUND ( 'NONE', #58, .T. ) ;
#168 = PRODUCT_DEFINITION_SHAPE ( 'NONE', 'NONE',  #177 ) ;
#169 = DIRECTION ( 'NONE',  ( 3.491481338843133355E-15, -1.224646799147353207E-16, 1.000000000000000000 ) ) ;
#170 = PERSON_AND_ORGANIZATION_ROLE ( 'creator' ) ;
#171 = PRODUCT_DEFINITION_FORMATION_WITH_SPECIFIED_SOURCE ( 'ANY', '', #184, .NOT_KNOWN. ) ;
#172 = MECHANICAL_CONTEXT ( 'NONE', #126, 'mechanical' ) ;
#173 = EDGE_LOOP ( 'NONE', ( #150 ) ) ;
#174 = DATE_TIME_ROLE ( 'creation_date' ) ;
#175 = AXIS2_PLACEMENT_3D ( 'NONE', #193, #65, #166 ) ;
#176 = VERTEX_POINT ( 'NONE', #94 ) ;
#177 = PRODUCT_DEFINITION ( 'UNKNOWN', '', #171, #203 ) ;
#178 = FACE_OUTER_BOUND ( 'NONE', #20, .T. ) ;
#179 = DIRECTION ( 'NONE',  ( 4.275831445896957731E-31, 1.000000000000000000, 1.224646799147353207E-16 ) ) ;
#180 = PLANE ( 'NONE',  #63 ) ;
#181 = DIRECTION ( 'NONE',  ( 4.275831445896958607E-31, 1.000000000000000000, 1.224646799147353207E-16 ) ) ;
#182 = CC_DESIGN_PERSON_AND_ORGANIZATION_ASSIGNMENT ( #185, #52, ( #50 ) ) ;
#183 = AXIS2_PLACEMENT_3D ( 'NONE', #86, #146, #21 ) ;
#184 = PRODUCT ( '58867', '58867', '', ( #172 ) ) ;
#185 = PERSON_AND_ORGANIZATION ( #127, #190 ) ;
#186 = DATE_AND_TIME ( #56, #14 ) ;
#187 = SHAPE_DEFINITION_REPRESENTATION ( #168, #12 ) ;
#188 = ORIENTED_EDGE ( 'NONE', *, *, #51, .T. ) ;
#189 = ORIENTED_EDGE ( 'NONE', *, *, #26, .T. ) ;
#190 = ORGANIZATION ( 'UNSPECIFIED', 'UNSPECIFIED', '' ) ;
#191 = ORIENTED_EDGE ( 'NONE', *, *, #48, .F. ) ;
#192 = CC_DESIGN_APPROVAL ( #114, ( #171 ) ) ;
#193 = CARTESIAN_POINT ( 'NONE',  ( 1.042052130284551253E-15, -3.655026855507966693E-17, 0.2984555920982881472 ) ) ;
#194 = ADVANCED_FACE ( 'NONE', ( #91 ), #180, .F. ) ;
#195 = CARTESIAN_POINT ( 'NONE',  ( 0.0000000000000000000, 0.0000000000000000000, 0.0000000000000000000 ) ) ;
#196 =( NAMED_UNIT ( * ) SI_UNIT ( $, .STERADIAN. ) SOLID_ANGLE_UNIT ( ) );
#197 = ADVANCED_FACE ( 'NONE', ( #154, #155 ), #7, .T. ) ;
#198 = PERSON_AND_ORGANIZATION ( #127, #190 ) ;
#199 = DATE_AND_TIME ( #82, #37 ) ;
#200 = AXIS2_PLACEMENT_3D ( 'NONE', #109, #44, #23 ) ;
#201 = CC_DESIGN_DATE_AND_TIME_ASSIGNMENT ( #199, #128, ( #50 ) ) ;
#202 = EDGE_LOOP ( 'NONE', ( #36 ) ) ;
#203 = DESIGN_CONTEXT ( 'detailed design', #137, 'design' ) ;
ENDSEC;
END-ISO-10303-21;
