ISO-10303-21;
HEADER;
FILE_DESCRIPTION (( 'STEP AP203' ),
    '1' );
FILE_NAME ('58741.step',
    '2021-10-07T13:48:24',
    ( '' ),
    ( '' ),
    'SwSTEP 2.0',
    'SolidWorks 2019',
    '' );
FILE_SCHEMA (( 'CONFIG_CONTROL_DESIGN' ));
ENDSEC;

DATA;
#1 = CARTESIAN_POINT ( 'NONE',  ( 4.189777606611760026E-14, -1.469576158976823947E-15, 12.00000000000000000 ) ) ;
#2 = DIRECTION ( 'NONE',  ( -4.275831445896958607E-31, -1.000000000000000000, -1.224646799147353207E-16 ) ) ;
#3 = VERTEX_POINT ( 'NONE', #76 ) ;
#4 = FACE_OUTER_BOUND ( 'NONE', #56, .T. ) ;
#5 = CALENDAR_DATE ( 2021, 7, 10 ) ;
#6 = AXIS2_PLACEMENT_3D ( 'NONE', #189, #75, #42 ) ;
#7 = APPROVAL_STATUS ( 'not_yet_approved' ) ;
#8 = DATE_AND_TIME ( #164, #84 ) ;
#9 = PERSON_AND_ORGANIZATION ( #50, #29 ) ;
#10 = AXIS2_PLACEMENT_3D ( 'NONE', #58, #93, #21 ) ;
#11 = SECURITY_CLASSIFICATION ( '', '', #127 ) ;
#12 = CALENDAR_DATE ( 2021, 7, 10 ) ;
#13 = EDGE_LOOP ( 'NONE', ( #167 ) ) ;
#14 = ORIENTED_EDGE ( 'NONE', *, *, #85, .F. ) ;
#15 = LOCAL_TIME ( 15, 48, 24.00000000000000000, #46 ) ;
#16 = CC_DESIGN_SECURITY_CLASSIFICATION ( #11, ( #60 ) ) ;
#17 = DIRECTION ( 'NONE',  ( 0.0000000000000000000, 1.000000000000000000, 0.0000000000000000000 ) ) ;
#18 = CARTESIAN_POINT ( 'NONE',  ( 1.326762908760390423E-13, 5.249159239316433205E-33, 38.00000000000000000 ) ) ;
#19 = PLANE ( 'NONE',  #38 ) ;
#20 = CIRCLE ( 'NONE', #144, 1.000000000000000222 ) ;
#21 = DIRECTION ( 'NONE',  ( 4.275831445896958607E-31, 1.000000000000000000, 1.224646799147353454E-16 ) ) ;
#22 = DIRECTION ( 'NONE',  ( -3.871215968617584449E-31, -1.000000000000000000, -1.089650424608554191E-16 ) ) ;
#23 = MECHANICAL_CONTEXT ( 'NONE', #28, 'mechanical' ) ;
#24 = AXIS2_PLACEMENT_3D ( 'NONE', #206, #45, #92 ) ;
#25 = APPLICATION_PROTOCOL_DEFINITION ( 'international standard', 'config_control_design', 1994, #28 ) ;
#26 = CARTESIAN_POINT ( 'NONE',  ( 0.0000000000000000000, 0.0000000000000000000, 0.0000000000000000000 ) ) ;
#27 = PERSON_AND_ORGANIZATION ( #50, #29 ) ;
#28 = APPLICATION_CONTEXT ( 'configuration controlled 3d designs of mechanical parts and assemblies' ) ;
#29 = ORGANIZATION ( 'UNSPECIFIED', 'UNSPECIFIED', '' ) ;
#30 = APPROVAL ( #7, 'UNSPECIFIED' ) ;
#31 = EDGE_CURVE ( 'NONE', #3, #3, #101, .T. ) ;
#32 = EDGE_LOOP ( 'NONE', ( #103 ) ) ;
#33 = EDGE_LOOP ( 'NONE', ( #198 ) ) ;
#34 = AXIS2_PLACEMENT_3D ( 'NONE', #173, #154, #22 ) ;
#35 = PRODUCT ( '58741', '58741', '', ( #23 ) ) ;
#36 = EDGE_LOOP ( 'NONE', ( #196 ) ) ;
#37 = ORIENTED_EDGE ( 'NONE', *, *, #170, .T. ) ;
#38 = AXIS2_PLACEMENT_3D ( 'NONE', #74, #110, #2 ) ;
#39 = DESIGN_CONTEXT ( 'detailed design', #128, 'design' ) ;
#40 = VERTEX_POINT ( 'NONE', #171 ) ;
#41 = ADVANCED_FACE ( 'NONE', ( #217, #195 ), #218, .T. ) ;
#42 = DIRECTION ( 'NONE',  ( 0.0000000000000000000, 1.000000000000000000, 0.0000000000000000000 ) ) ;
#43 = FACE_OUTER_BOUND ( 'NONE', #33, .T. ) ;
#44 = DIRECTION ( 'NONE',  ( 3.871215968617584449E-31, 1.000000000000000000, 1.089650424608554191E-16 ) ) ;
#45 = DIRECTION ( 'NONE',  ( -3.491481338843133355E-15, 1.224646799147353207E-16, -1.000000000000000000 ) ) ;
#46 = COORDINATED_UNIVERSAL_TIME_OFFSET ( 1, 0, .AHEAD. ) ;
#47 = DIRECTION ( 'NONE',  ( 0.0000000000000000000, 0.0000000000000000000, 1.000000000000000000 ) ) ;
#48 = APPROVAL_PERSON_ORGANIZATION ( #161, #142, #190 ) ;
#49 = PERSON_AND_ORGANIZATION_ROLE ( 'classification_officer' ) ;
#50 = PERSON ( 'UNSPECIFIED', 'UNSPECIFIED', 'UNSPECIFIED', ('UNSPECIFIED'), ('UNSPECIFIED'), ('UNSPECIFIED') ) ;
#51 = CALENDAR_DATE ( 2021, 7, 10 ) ;
#52 = DIRECTION ( 'NONE',  ( 1.000000000000000000, 0.0000000000000000000, 0.0000000000000000000 ) ) ;
#53 = CC_DESIGN_PERSON_AND_ORGANIZATION_ASSIGNMENT ( #67, #146, ( #60 ) ) ;
#54 = ADVANCED_FACE ( 'NONE', ( #4 ), #147, .T. ) ;
#55 = APPROVAL_DATE_TIME ( #197, #142 ) ;
#56 = EDGE_LOOP ( 'NONE', ( #151 ) ) ;
#57 = APPROVAL_PERSON_ORGANIZATION ( #131, #30, #177 ) ;
#58 = CARTESIAN_POINT ( 'NONE',  ( 0.0000000000000000000, 0.0000000000000000000, 0.0000000000000000000 ) ) ;
#59 = CC_DESIGN_DATE_AND_TIME_ASSIGNMENT ( #66, #163, ( #81 ) ) ;
#60 = PRODUCT_DEFINITION_FORMATION_WITH_SPECIFIED_SOURCE ( 'ANY', '', #35, .NOT_KNOWN. ) ;
#61 = LOCAL_TIME ( 15, 48, 24.00000000000000000, #213 ) ;
#62 = DIRECTION ( 'NONE',  ( 0.0000000000000000000, 1.000000000000000000, 0.0000000000000000000 ) ) ;
#63 = CARTESIAN_POINT ( 'NONE',  ( 1.316288464743861212E-13, -4.616918432785521081E-15, 37.69999999999999574 ) ) ;
#64 = FACE_OUTER_BOUND ( 'NONE', #117, .T. ) ;
#65 = DIRECTION ( 'NONE',  ( -3.491481338843133355E-15, 1.224646799147353207E-16, -1.000000000000000000 ) ) ;
#66 = DATE_AND_TIME ( #5, #15 ) ;
#67 = PERSON_AND_ORGANIZATION ( #50, #29 ) ;
#68 = PERSON_AND_ORGANIZATION ( #50, #29 ) ;
#69 = AXIS2_PLACEMENT_3D ( 'NONE', #208, #207, #126 ) ;
#70 = APPROVAL_ROLE ( '' ) ;
#71 = EDGE_LOOP ( 'NONE', ( #14 ) ) ;
#72 = APPROVAL_PERSON_ORGANIZATION ( #9, #165, #70 ) ;
#73 = CARTESIAN_POINT ( 'NONE',  ( 1.326762908760390423E-13, 0.6999999999999955147, 38.00000000000000000 ) ) ;
#74 = CARTESIAN_POINT ( 'NONE',  ( 4.189777606611760026E-14, 7.461304918742686587E-33, 12.00000000000000000 ) ) ;
#75 = DIRECTION ( 'NONE',  ( -3.491481338843133355E-15, 1.224646799147353207E-16, -1.000000000000000000 ) ) ;
#76 = CARTESIAN_POINT ( 'NONE',  ( 4.189777606611760026E-14, 0.9949999999999941114, 12.00000000000000000 ) ) ;
#77 = FACE_OUTER_BOUND ( 'NONE', #184, .T. ) ;
#78 =( GEOMETRIC_REPRESENTATION_CONTEXT ( 3 ) GLOBAL_UNCERTAINTY_ASSIGNED_CONTEXT ( ( #203 ) ) GLOBAL_UNIT_ASSIGNED_CONTEXT ( ( #82, #180, #211 ) ) REPRESENTATION_CONTEXT ( 'NONE', 'WORKASPACE' ) );
#79 = DATE_AND_TIME ( #51, #121 ) ;
#80 = CARTESIAN_POINT ( 'NONE',  ( 1.316288464743861212E-13, 0.9999999999999956701, 37.69999999999999574 ) ) ;
#81 = PRODUCT_DEFINITION ( 'UNKNOWN', '', #60, #39 ) ;
#82 =( LENGTH_UNIT ( ) NAMED_UNIT ( * ) SI_UNIT ( .MILLI., .METRE. ) );
#83 = CONICAL_SURFACE ( 'NONE', #69, 0.7000000000000001776, 0.7853981633974456145 ) ;
#84 = LOCAL_TIME ( 15, 48, 24.00000000000000000, #129 ) ;
#85 = EDGE_CURVE ( 'NONE', #140, #140, #158, .T. ) ;
#86 = EDGE_LOOP ( 'NONE', ( #153 ) ) ;
#87 = ADVANCED_FACE ( 'NONE', ( #43, #223 ), #83, .T. ) ;
#88 = AXIS2_PLACEMENT_3D ( 'NONE', #1, #138, #123 ) ;
#89 = FACE_OUTER_BOUND ( 'NONE', #220, .T. ) ;
#90 = FACE_OUTER_BOUND ( 'NONE', #36, .T. ) ;
#91 = CARTESIAN_POINT ( 'NONE',  ( 2.087404170387566965E-15, -7.321628236566731781E-17, 0.5978563159324250531 ) ) ;
#92 = DIRECTION ( 'NONE',  ( 4.275831445896959482E-31, 1.000000000000000000, 1.224646799147353454E-16 ) ) ;
#93 = DIRECTION ( 'NONE',  ( -3.491481338843133355E-15, 1.224646799147353207E-16, -1.000000000000000000 ) ) ;
#94 = APPROVAL_DATE_TIME ( #181, #30 ) ;
#95 = EDGE_CURVE ( 'NONE', #160, #160, #132, .T. ) ;
#96 = CLOSED_SHELL ( 'NONE', ( #134, #41, #141, #87, #150 ) ) ;
#97 = EDGE_CURVE ( 'NONE', #40, #40, #152, .T. ) ;
#98 = VERTEX_POINT ( 'NONE', #148 ) ;
#99 = APPLICATION_PROTOCOL_DEFINITION ( 'international standard', 'config_control_design', 1994, #128 ) ;
#100 = PERSON_AND_ORGANIZATION_ROLE ( 'design_supplier' ) ;
#101 = CIRCLE ( 'NONE', #105, 0.9949999999999956657 ) ;
#102 = LOCAL_TIME ( 15, 48, 24.00000000000000000, #133 ) ;
#103 = ORIENTED_EDGE ( 'NONE', *, *, #97, .T. ) ;
#104 = PRODUCT_RELATED_PRODUCT_CATEGORY ( 'detail', '', ( #35 ) ) ;
#105 = AXIS2_PLACEMENT_3D ( 'NONE', #169, #135, #17 ) ;
#106 = VERTEX_POINT ( 'NONE', #80 ) ;
#107 = FACE_OUTER_BOUND ( 'NONE', #86, .T. ) ;
#108 = MANIFOLD_SOLID_BREP ( 'Corps-Déplacer/Copier1[1]', #96 ) ;
#109 = DIRECTION ( 'NONE',  ( 0.0000000000000000000, 1.000000000000000000, 0.0000000000000000000 ) ) ;
#110 = DIRECTION ( 'NONE',  ( 3.491481338843133355E-15, -1.224646799147353207E-16, 1.000000000000000000 ) ) ;
#111 = DIRECTION ( 'NONE',  ( 4.275831445896958607E-31, 1.000000000000000000, 1.224646799147353207E-16 ) ) ;
#112 = CC_DESIGN_PERSON_AND_ORGANIZATION_ASSIGNMENT ( #27, #100, ( #60 ) ) ;
#113 = CC_DESIGN_PERSON_AND_ORGANIZATION_ASSIGNMENT ( #68, #49, ( #11 ) ) ;
#114 = MANIFOLD_SOLID_BREP ( 'Corps-Déplacer/Copier1[2]', #192 ) ;
#115 = APPROVAL_STATUS ( 'not_yet_approved' ) ;
#116 = CALENDAR_DATE ( 2021, 7, 10 ) ;
#117 = EDGE_LOOP ( 'NONE', ( #136 ) ) ;
#118 = AXIS2_PLACEMENT_3D ( 'NONE', #157, #175, #156 ) ;
#119 = ORIENTED_EDGE ( 'NONE', *, *, #210, .T. ) ;
#120 = CARTESIAN_POINT ( 'NONE',  ( 2.087404170387567359E-15, 0.9949999999999935563, 0.5978563159324251641 ) ) ;
#121 = LOCAL_TIME ( 15, 48, 24.00000000000000000, #149 ) ;
#122 = CARTESIAN_POINT ( 'NONE',  ( 1.326762908760390423E-13, -4.653657836759941941E-15, 38.00000000000000000 ) ) ;
#123 = DIRECTION ( 'NONE',  ( 0.0000000000000000000, 1.000000000000000000, 0.0000000000000000000 ) ) ;
#124 = PLANE ( 'NONE',  #199 ) ;
#125 = AXIS2_PLACEMENT_3D ( 'NONE', #91, #186, #44 ) ;
#126 = DIRECTION ( 'NONE',  ( 0.0000000000000000000, 1.000000000000000000, 0.0000000000000000000 ) ) ;
#127 = SECURITY_CLASSIFICATION_LEVEL ( 'unclassified' ) ;
#128 = APPLICATION_CONTEXT ( 'configuration controlled 3d designs of mechanical parts and assemblies' ) ;
#129 = COORDINATED_UNIVERSAL_TIME_OFFSET ( 1, 0, .AHEAD. ) ;
#130 = APPROVAL_STATUS ( 'not_yet_approved' ) ;
#131 = PERSON_AND_ORGANIZATION ( #50, #29 ) ;
#132 = CIRCLE ( 'NONE', #209, 0.7000000000000001776 ) ;
#133 = COORDINATED_UNIVERSAL_TIME_OFFSET ( 1, 0, .AHEAD. ) ;
#134 = ADVANCED_FACE ( 'NONE', ( #107 ), #139, .F. ) ;
#135 = DIRECTION ( 'NONE',  ( -3.491481338843133355E-15, 1.224646799147353207E-16, -1.000000000000000000 ) ) ;
#136 = ORIENTED_EDGE ( 'NONE', *, *, #95, .F. ) ;
#137 = ORIENTED_EDGE ( 'NONE', *, *, #31, .F. ) ;
#138 = DIRECTION ( 'NONE',  ( -3.491481338843133355E-15, 1.224646799147353207E-16, -1.000000000000000000 ) ) ;
#139 = PLANE ( 'NONE',  #182 ) ;
#140 = VERTEX_POINT ( 'NONE', #120 ) ;
#141 = ADVANCED_FACE ( 'NONE', ( #185, #77 ), #204, .T. ) ;
#142 = APPROVAL ( #115, 'UNSPECIFIED' ) ;
#143 = CYLINDRICAL_SURFACE ( 'NONE', #10, 0.9949999999999945555 ) ;
#144 = AXIS2_PLACEMENT_3D ( 'NONE', #63, #159, #109 ) ;
#145 = CC_DESIGN_APPROVAL ( #165, ( #81 ) ) ;
#146 = PERSON_AND_ORGANIZATION_ROLE ( 'creator' ) ;
#147 = CONICAL_SURFACE ( 'NONE', #34, 0.9949999999999935563, 1.029744258676649649 ) ;
#148 = CARTESIAN_POINT ( 'NONE',  ( 4.189777606611760026E-14, 0.9949999999999941114, 12.00000000000000000 ) ) ;
#149 = COORDINATED_UNIVERSAL_TIME_OFFSET ( 1, 0, .AHEAD. ) ;
#150 = ADVANCED_FACE ( 'NONE', ( #64 ), #124, .F. ) ;
#151 = ORIENTED_EDGE ( 'NONE', *, *, #85, .T. ) ;
#152 = CIRCLE ( 'NONE', #6, 0.9999999999999970024 ) ;
#153 = ORIENTED_EDGE ( 'NONE', *, *, #31, .T. ) ;
#154 = DIRECTION ( 'NONE',  ( 3.491481338843133355E-15, -1.224646799147353207E-16, 1.000000000000000000 ) ) ;
#155 = ADVANCED_FACE ( 'NONE', ( #90 ), #19, .T. ) ;
#156 = DIRECTION ( 'NONE',  ( 0.0000000000000000000, -1.000000000000000000, 0.0000000000000000000 ) ) ;
#157 = CARTESIAN_POINT ( 'NONE',  ( 4.192801318148039424E-14, -1.470636734215549386E-15, 12.00866025403784931 ) ) ;
#158 = CIRCLE ( 'NONE', #125, 0.9949999999999935563 ) ;
#159 = DIRECTION ( 'NONE',  ( -3.491481338843133355E-15, 1.224646799147353207E-16, -1.000000000000000000 ) ) ;
#160 = VERTEX_POINT ( 'NONE', #73 ) ;
#161 = PERSON_AND_ORGANIZATION ( #50, #29 ) ;
#162 = CIRCLE ( 'NONE', #88, 0.9949999999999956657 ) ;
#163 = DATE_TIME_ROLE ( 'creation_date' ) ;
#164 = CALENDAR_DATE ( 2021, 7, 10 ) ;
#165 = APPROVAL ( #130, 'UNSPECIFIED' ) ;
#166 = SHAPE_DEFINITION_REPRESENTATION ( #168, #174 ) ;
#167 = ORIENTED_EDGE ( 'NONE', *, *, #97, .F. ) ;
#168 = PRODUCT_DEFINITION_SHAPE ( 'NONE', 'NONE',  #81 ) ;
#169 = CARTESIAN_POINT ( 'NONE',  ( 4.189777606611760026E-14, -1.469576158976823947E-15, 12.00000000000000000 ) ) ;
#170 = EDGE_CURVE ( 'NONE', #106, #106, #20, .T. ) ;
#171 = CARTESIAN_POINT ( 'NONE',  ( 4.192801318148039424E-14, 0.9999999999999954481, 12.00866025403784931 ) ) ;
#172 = CARTESIAN_POINT ( 'NONE',  ( 4.189777606611760026E-14, 7.461304918742686587E-33, 12.00000000000000000 ) ) ;
#173 = CARTESIAN_POINT ( 'NONE',  ( 2.087404170387566965E-15, -7.321628236566731781E-17, 0.5978563159324250531 ) ) ;
#174 = ADVANCED_BREP_SHAPE_REPRESENTATION ( '58741', ( #108, #114, #221 ), #78 ) ;
#175 = DIRECTION ( 'NONE',  ( 3.491481338843133355E-15, -1.224646799147353207E-16, 1.000000000000000000 ) ) ;
#176 = FACE_OUTER_BOUND ( 'NONE', #71, .T. ) ;
#177 = APPROVAL_ROLE ( '' ) ;
#178 = CC_DESIGN_PERSON_AND_ORGANIZATION_ASSIGNMENT ( #191, #215, ( #35 ) ) ;
#179 = PERSON_AND_ORGANIZATION_ROLE ( 'creator' ) ;
#180 =( NAMED_UNIT ( * ) PLANE_ANGLE_UNIT ( ) SI_UNIT ( $, .RADIAN. ) );
#181 = DATE_AND_TIME ( #116, #61 ) ;
#182 = AXIS2_PLACEMENT_3D ( 'NONE', #172, #187, #188 ) ;
#183 = EDGE_LOOP ( 'NONE', ( #137 ) ) ;
#184 = EDGE_LOOP ( 'NONE', ( #37 ) ) ;
#185 = FACE_OUTER_BOUND ( 'NONE', #13, .T. ) ;
#186 = DIRECTION ( 'NONE',  ( -3.491481338843133355E-15, 1.224646799147353207E-16, -1.000000000000000000 ) ) ;
#187 = DIRECTION ( 'NONE',  ( 3.491481338843133355E-15, -1.224646799147353207E-16, 1.000000000000000000 ) ) ;
#188 = DIRECTION ( 'NONE',  ( -4.275831445896958607E-31, -1.000000000000000000, -1.224646799147353207E-16 ) ) ;
#189 = CARTESIAN_POINT ( 'NONE',  ( 4.192801318148039424E-14, -1.470636734215549386E-15, 12.00866025403784931 ) ) ;
#190 = APPROVAL_ROLE ( '' ) ;
#191 = PERSON_AND_ORGANIZATION ( #50, #29 ) ;
#192 = CLOSED_SHELL ( 'NONE', ( #54, #212, #155 ) ) ;
#193 = CC_DESIGN_APPROVAL ( #30, ( #60 ) ) ;
#194 = DATE_TIME_ROLE ( 'classification_date' ) ;
#195 = FACE_OUTER_BOUND ( 'NONE', #32, .T. ) ;
#196 = ORIENTED_EDGE ( 'NONE', *, *, #210, .F. ) ;
#197 = DATE_AND_TIME ( #12, #102 ) ;
#198 = ORIENTED_EDGE ( 'NONE', *, *, #170, .F. ) ;
#199 = AXIS2_PLACEMENT_3D ( 'NONE', #18, #205, #111 ) ;
#200 = CC_DESIGN_APPROVAL ( #142, ( #11 ) ) ;
#201 = CC_DESIGN_DATE_AND_TIME_ASSIGNMENT ( #8, #194, ( #11 ) ) ;
#202 = EDGE_LOOP ( 'NONE', ( #222 ) ) ;
#203 = UNCERTAINTY_MEASURE_WITH_UNIT (LENGTH_MEASURE( 1.000000000000000082E-05 ), #82, 'distance_accuracy_value', 'NONE');
#204 = CYLINDRICAL_SURFACE ( 'NONE', #24, 0.9999999999999986677 ) ;
#205 = DIRECTION ( 'NONE',  ( -3.491481338843133355E-15, 1.224646799147353207E-16, -1.000000000000000000 ) ) ;
#206 = CARTESIAN_POINT ( 'NONE',  ( 0.0000000000000000000, 0.0000000000000000000, 0.0000000000000000000 ) ) ;
#207 = DIRECTION ( 'NONE',  ( -3.491481338843133355E-15, 1.224646799147353207E-16, -1.000000000000000000 ) ) ;
#208 = CARTESIAN_POINT ( 'NONE',  ( 1.326762908760390423E-13, -4.653657836759941941E-15, 38.00000000000000000 ) ) ;
#209 = AXIS2_PLACEMENT_3D ( 'NONE', #122, #65, #62 ) ;
#210 = EDGE_CURVE ( 'NONE', #98, #98, #162, .T. ) ;
#211 =( NAMED_UNIT ( * ) SI_UNIT ( $, .STERADIAN. ) SOLID_ANGLE_UNIT ( ) );
#212 = ADVANCED_FACE ( 'NONE', ( #176, #89 ), #143, .T. ) ;
#213 = COORDINATED_UNIVERSAL_TIME_OFFSET ( 1, 0, .AHEAD. ) ;
#214 = APPROVAL_DATE_TIME ( #79, #165 ) ;
#215 = PERSON_AND_ORGANIZATION_ROLE ( 'design_owner' ) ;
#216 = PERSON_AND_ORGANIZATION ( #50, #29 ) ;
#217 = FACE_BOUND ( 'NONE', #183, .T. ) ;
#218 = CONICAL_SURFACE ( 'NONE', #118, 0.9999999999999970024, 0.5235987755981990066 ) ;
#219 = CC_DESIGN_PERSON_AND_ORGANIZATION_ASSIGNMENT ( #216, #179, ( #81 ) ) ;
#220 = EDGE_LOOP ( 'NONE', ( #119 ) ) ;
#221 = AXIS2_PLACEMENT_3D ( 'NONE', #26, #47, #52 ) ;
#222 = ORIENTED_EDGE ( 'NONE', *, *, #95, .T. ) ;
#223 = FACE_BOUND ( 'NONE', #202, .T. ) ;
ENDSEC;
END-ISO-10303-21;
