ISO-10303-21;
HEADER;
FILE_DESCRIPTION (( 'STEP AP203' ),
    '1' );
FILE_NAME ('58636.step',
    '2021-10-07T13:48:23',
    ( '' ),
    ( '' ),
    'SwSTEP 2.0',
    'SolidWorks 2019',
    '' );
FILE_SCHEMA (( 'CONFIG_CONTROL_DESIGN' ));
ENDSEC;

DATA;
#1 = ORIENTED_EDGE ( 'NONE', *, *, #19, .T. ) ;
#2 = EDGE_LOOP ( 'NONE', ( #160 ) ) ;
#3 = AXIS2_PLACEMENT_3D ( 'NONE', #144, #181, #161 ) ;
#4 = EDGE_LOOP ( 'NONE', ( #195 ) ) ;
#5 = ORIENTED_EDGE ( 'NONE', *, *, #61, .T. ) ;
#6 = EDGE_LOOP ( 'NONE', ( #54 ) ) ;
#7 = FACE_OUTER_BOUND ( 'NONE', #179, .T. ) ;
#8 = CYLINDRICAL_SURFACE ( 'NONE', #10, 0.9049999999999939204 ) ;
#9 = FACE_OUTER_BOUND ( 'NONE', #2, .T. ) ;
#10 = AXIS2_PLACEMENT_3D ( 'NONE', #62, #85, #13 ) ;
#11 = LOCAL_TIME ( 15, 48, 23.00000000000000000, #153 ) ;
#12 = VERTEX_POINT ( 'NONE', #84 ) ;
#13 = DIRECTION ( 'NONE',  ( 4.275831445896958607E-31, 1.000000000000000000, 1.224646799147353207E-16 ) ) ;
#14 = CALENDAR_DATE ( 2021, 7, 10 ) ;
#15 = AXIS2_PLACEMENT_3D ( 'NONE', #130, #79, #82 ) ;
#16 = COORDINATED_UNIVERSAL_TIME_OFFSET ( 1, 0, .AHEAD. ) ;
#17 = PRODUCT ( '58636', '58636', '', ( #120 ) ) ;
#18 = PERSON_AND_ORGANIZATION_ROLE ( 'design_supplier' ) ;
#19 = EDGE_CURVE ( 'NONE', #31, #31, #66, .T. ) ;
#20 = PERSON_AND_ORGANIZATION ( #22, #43 ) ;
#21 = DIRECTION ( 'NONE',  ( 1.000000000000000000, 0.0000000000000000000, 0.0000000000000000000 ) ) ;
#22 = PERSON ( 'UNSPECIFIED', 'UNSPECIFIED', 'UNSPECIFIED', ('UNSPECIFIED'), ('UNSPECIFIED'), ('UNSPECIFIED') ) ;
#23 = CC_DESIGN_PERSON_AND_ORGANIZATION_ASSIGNMENT ( #70, #50, ( #60 ) ) ;
#24 = ORIENTED_EDGE ( 'NONE', *, *, #196, .F. ) ;
#25 = APPROVAL_DATE_TIME ( #122, #191 ) ;
#26 = CC_DESIGN_APPROVAL ( #165, ( #60 ) ) ;
#27 = FACE_OUTER_BOUND ( 'NONE', #78, .T. ) ;
#28 = ADVANCED_FACE ( 'NONE', ( #213, #125 ), #223, .T. ) ;
#29 = DIRECTION ( 'NONE',  ( 0.0000000000000000000, 1.000000000000000000, 0.0000000000000000000 ) ) ;
#30 = CARTESIAN_POINT ( 'NONE',  ( 1.326762908760390423E-13, -4.653657836759941941E-15, 38.00000000000000000 ) ) ;
#31 = VERTEX_POINT ( 'NONE', #93 ) ;
#32 = AXIS2_PLACEMENT_3D ( 'NONE', #186, #218, #47 ) ;
#33 = CARTESIAN_POINT ( 'NONE',  ( 1.319779946082704535E-13, -4.629164900776995227E-15, 37.79999999999999716 ) ) ;
#34 = PERSON_AND_ORGANIZATION ( #22, #43 ) ;
#35 = CARTESIAN_POINT ( 'NONE',  ( 0.0000000000000000000, 0.0000000000000000000, 0.0000000000000000000 ) ) ;
#36 = CIRCLE ( 'NONE', #156, 0.9999999999999993339 ) ;
#37 = AXIS2_PLACEMENT_3D ( 'NONE', #40, #197, #214 ) ;
#38 = APPROVAL_DATE_TIME ( #205, #165 ) ;
#39 = APPLICATION_PROTOCOL_DEFINITION ( 'international standard', 'config_control_design', 1994, #187 ) ;
#40 = CARTESIAN_POINT ( 'NONE',  ( 1.326762908760390423E-13, -4.653657836759941941E-15, 38.00000000000000000 ) ) ;
#41 = CARTESIAN_POINT ( 'NONE',  ( 1.898593742915323896E-15, -6.659370406123506107E-17, 0.5437788602199441490 ) ) ;
#42 = ADVANCED_FACE ( 'NONE', ( #126 ), #154, .T. ) ;
#43 = ORGANIZATION ( 'UNSPECIFIED', 'UNSPECIFIED', '' ) ;
#44 = DIRECTION ( 'NONE',  ( -4.275831445896958607E-31, -1.000000000000000000, -1.224646799147353207E-16 ) ) ;
#45 = CARTESIAN_POINT ( 'NONE',  ( 4.189777606611760026E-14, 6.786413016544838895E-33, 12.00000000000000000 ) ) ;
#46 = CARTESIAN_POINT ( 'NONE',  ( 1.326762908760390423E-13, 5.999039130647358587E-33, 38.00000000000000000 ) ) ;
#47 = DIRECTION ( 'NONE',  ( 0.0000000000000000000, 1.000000000000000000, 0.0000000000000000000 ) ) ;
#48 = CONICAL_SURFACE ( 'NONE', #15, 0.9999999999999970024, 0.5235987755982944858 ) ;
#49 = DIRECTION ( 'NONE',  ( 0.0000000000000000000, 0.0000000000000000000, 1.000000000000000000 ) ) ;
#50 = PERSON_AND_ORGANIZATION_ROLE ( 'creator' ) ;
#51 = DATE_AND_TIME ( #71, #11 ) ;
#52 = EDGE_CURVE ( 'NONE', #67, #67, #129, .T. ) ;
#53 = LOCAL_TIME ( 15, 48, 23.00000000000000000, #16 ) ;
#54 = ORIENTED_EDGE ( 'NONE', *, *, #196, .T. ) ;
#55 = ORIENTED_EDGE ( 'NONE', *, *, #73, .F. ) ;
#56 = ADVANCED_FACE ( 'NONE', ( #27 ), #146, .T. ) ;
#57 = COORDINATED_UNIVERSAL_TIME_OFFSET ( 1, 0, .AHEAD. ) ;
#58 = EDGE_LOOP ( 'NONE', ( #123 ) ) ;
#59 = CIRCLE ( 'NONE', #116, 0.7999999999999996003 ) ;
#60 = PRODUCT_DEFINITION_FORMATION_WITH_SPECIFIED_SOURCE ( 'ANY', '', #17, .NOT_KNOWN. ) ;
#61 = EDGE_CURVE ( 'NONE', #98, #98, #110, .T. ) ;
#62 = CARTESIAN_POINT ( 'NONE',  ( 0.0000000000000000000, 0.0000000000000000000, 0.0000000000000000000 ) ) ;
#63 = DIRECTION ( 'NONE',  ( -3.491481338843133355E-15, 1.224646799147353207E-16, -1.000000000000000000 ) ) ;
#64 = SECURITY_CLASSIFICATION ( '', '', #222 ) ;
#65 = DIRECTION ( 'NONE',  ( 4.275831445896958607E-31, 1.000000000000000000, 1.224646799147353207E-16 ) ) ;
#66 = CIRCLE ( 'NONE', #3, 0.9049999999999935874 ) ;
#67 = VERTEX_POINT ( 'NONE', #202 ) ;
#68 = DIRECTION ( 'NONE',  ( -3.491481338843133355E-15, 1.224646799147353207E-16, -1.000000000000000000 ) ) ;
#69 =( NAMED_UNIT ( * ) SI_UNIT ( $, .STERADIAN. ) SOLID_ANGLE_UNIT ( ) );
#70 = PERSON_AND_ORGANIZATION ( #22, #43 ) ;
#71 = CALENDAR_DATE ( 2021, 7, 10 ) ;
#72 = AXIS2_PLACEMENT_3D ( 'NONE', #41, #131, #163 ) ;
#73 = EDGE_CURVE ( 'NONE', #12, #12, #59, .T. ) ;
#74 = LOCAL_TIME ( 15, 48, 23.00000000000000000, #101 ) ;
#75 = EDGE_LOOP ( 'NONE', ( #211 ) ) ;
#76 = ADVANCED_FACE ( 'NONE', ( #7 ), #95, .F. ) ;
#77 = CIRCLE ( 'NONE', #86, 0.9999999999999970024 ) ;
#78 = EDGE_LOOP ( 'NONE', ( #212 ) ) ;
#79 = DIRECTION ( 'NONE',  ( 3.491481338843133355E-15, -1.224646799147353207E-16, 1.000000000000000000 ) ) ;
#80 = FACE_OUTER_BOUND ( 'NONE', #75, .T. ) ;
#81 = CC_DESIGN_APPROVAL ( #191, ( #64 ) ) ;
#82 = DIRECTION ( 'NONE',  ( 0.0000000000000000000, -1.000000000000000000, 0.0000000000000000000 ) ) ;
#83 = EDGE_CURVE ( 'NONE', #219, #219, #36, .T. ) ;
#84 = CARTESIAN_POINT ( 'NONE',  ( 1.326762908760390423E-13, 0.7999999999999949374, 38.00000000000000000 ) ) ;
#85 = DIRECTION ( 'NONE',  ( -3.491481338843133355E-15, 1.224646799147353207E-16, -1.000000000000000000 ) ) ;
#86 = AXIS2_PLACEMENT_3D ( 'NONE', #113, #200, #29 ) ;
#87 = CALENDAR_DATE ( 2021, 7, 10 ) ;
#88 = ADVANCED_BREP_SHAPE_REPRESENTATION ( '58636', ( #97, #96, #109 ), #106 ) ;
#89 = PERSON_AND_ORGANIZATION_ROLE ( 'classification_officer' ) ;
#90 = EDGE_LOOP ( 'NONE', ( #1 ) ) ;
#91 = APPROVAL_PERSON_ORGANIZATION ( #34, #165, #190 ) ;
#92 = FACE_OUTER_BOUND ( 'NONE', #6, .T. ) ;
#93 = CARTESIAN_POINT ( 'NONE',  ( 1.898593742915324291E-15, 0.9049999999999934763, 0.5437788602199442600 ) ) ;
#94 = ADVANCED_FACE ( 'NONE', ( #216, #112 ), #167, .T. ) ;
#95 = PLANE ( 'NONE',  #147 ) ;
#96 = MANIFOLD_SOLID_BREP ( 'Corps-Déplacer/Copier1[2]', #199 ) ;
#97 = MANIFOLD_SOLID_BREP ( 'Corps-Déplacer/Copier1[1]', #99 ) ;
#98 = VERTEX_POINT ( 'NONE', #166 ) ;
#99 = CLOSED_SHELL ( 'NONE', ( #142, #128, #94, #28, #76 ) ) ;
#100 = DIRECTION ( 'NONE',  ( -3.491481338843133355E-15, 1.224646799147353207E-16, -1.000000000000000000 ) ) ;
#101 = COORDINATED_UNIVERSAL_TIME_OFFSET ( 1, 0, .AHEAD. ) ;
#102 = CALENDAR_DATE ( 2021, 7, 10 ) ;
#103 = PERSON_AND_ORGANIZATION ( #22, #43 ) ;
#104 = CARTESIAN_POINT ( 'NONE',  ( 1.319779946082704535E-13, 0.9999999999999947820, 37.79999999999999716 ) ) ;
#105 = PERSON_AND_ORGANIZATION ( #22, #43 ) ;
#106 =( GEOMETRIC_REPRESENTATION_CONTEXT ( 3 ) GLOBAL_UNCERTAINTY_ASSIGNED_CONTEXT ( ( #177 ) ) GLOBAL_UNIT_ASSIGNED_CONTEXT ( ( #208, #133, #69 ) ) REPRESENTATION_CONTEXT ( 'NONE', 'WORKASPACE' ) );
#107 = ORIENTED_EDGE ( 'NONE', *, *, #83, .F. ) ;
#108 = APPROVAL_ROLE ( '' ) ;
#109 = AXIS2_PLACEMENT_3D ( 'NONE', #35, #49, #21 ) ;
#110 = CIRCLE ( 'NONE', #138, 0.9049999999999941425 ) ;
#111 = ADVANCED_FACE ( 'NONE', ( #9, #148 ), #8, .T. ) ;
#112 = FACE_OUTER_BOUND ( 'NONE', #143, .T. ) ;
#113 = CARTESIAN_POINT ( 'NONE',  ( 4.247228125801033871E-14, -1.489727088512597815E-15, 12.16454482671904991 ) ) ;
#114 = CARTESIAN_POINT ( 'NONE',  ( 0.0000000000000000000, 0.0000000000000000000, 0.0000000000000000000 ) ) ;
#115 = DIRECTION ( 'NONE',  ( -3.491481338843133355E-15, 1.224646799147353207E-16, -1.000000000000000000 ) ) ;
#116 = AXIS2_PLACEMENT_3D ( 'NONE', #30, #100, #215 ) ;
#117 = DIRECTION ( 'NONE',  ( -4.275831445896958607E-31, -1.000000000000000000, -1.224646799147353207E-16 ) ) ;
#118 = CC_DESIGN_DATE_AND_TIME_ASSIGNMENT ( #51, #172, ( #64 ) ) ;
#119 = PERSON_AND_ORGANIZATION_ROLE ( 'creator' ) ;
#120 = MECHANICAL_CONTEXT ( 'NONE', #187, 'mechanical' ) ;
#121 = EDGE_LOOP ( 'NONE', ( #107 ) ) ;
#122 = DATE_AND_TIME ( #158, #184 ) ;
#123 = ORIENTED_EDGE ( 'NONE', *, *, #52, .F. ) ;
#124 = AXIS2_PLACEMENT_3D ( 'NONE', #45, #185, #117 ) ;
#125 = FACE_BOUND ( 'NONE', #4, .T. ) ;
#126 = FACE_OUTER_BOUND ( 'NONE', #90, .T. ) ;
#127 = DIRECTION ( 'NONE',  ( 3.491481338843133355E-15, -1.224646799147353207E-16, 1.000000000000000000 ) ) ;
#128 = ADVANCED_FACE ( 'NONE', ( #198, #92 ), #48, .T. ) ;
#129 = CIRCLE ( 'NONE', #32, 0.9049999999999941425 ) ;
#130 = CARTESIAN_POINT ( 'NONE',  ( 4.247228125801033871E-14, -1.489727088512597815E-15, 12.16454482671904991 ) ) ;
#131 = DIRECTION ( 'NONE',  ( 3.491481338843133355E-15, -1.224646799147353207E-16, 1.000000000000000000 ) ) ;
#132 = CC_DESIGN_PERSON_AND_ORGANIZATION_ASSIGNMENT ( #103, #18, ( #60 ) ) ;
#133 =( NAMED_UNIT ( * ) PLANE_ANGLE_UNIT ( ) SI_UNIT ( $, .RADIAN. ) );
#134 = PERSON_AND_ORGANIZATION ( #22, #43 ) ;
#135 = APPLICATION_PROTOCOL_DEFINITION ( 'international standard', 'config_control_design', 1994, #149 ) ;
#136 = AXIS2_PLACEMENT_3D ( 'NONE', #145, #127, #44 ) ;
#137 = APPROVAL_STATUS ( 'not_yet_approved' ) ;
#138 = AXIS2_PLACEMENT_3D ( 'NONE', #188, #63, #203 ) ;
#139 = APPROVAL_STATUS ( 'not_yet_approved' ) ;
#140 = CC_DESIGN_SECURITY_CLASSIFICATION ( #64, ( #60 ) ) ;
#141 = PRODUCT_DEFINITION_SHAPE ( 'NONE', 'NONE',  #210 ) ;
#142 = ADVANCED_FACE ( 'NONE', ( #80 ), #162, .F. ) ;
#143 = EDGE_LOOP ( 'NONE', ( #176 ) ) ;
#144 = CARTESIAN_POINT ( 'NONE',  ( 1.898593742915323896E-15, -6.659370406123506107E-17, 0.5437788602199441490 ) ) ;
#145 = CARTESIAN_POINT ( 'NONE',  ( 4.189777606611760026E-14, 6.786413016544838895E-33, 12.00000000000000000 ) ) ;
#146 = PLANE ( 'NONE',  #124 ) ;
#147 = AXIS2_PLACEMENT_3D ( 'NONE', #46, #68, #65 ) ;
#148 = FACE_OUTER_BOUND ( 'NONE', #182, .T. ) ;
#149 = APPLICATION_CONTEXT ( 'configuration controlled 3d designs of mechanical parts and assemblies' ) ;
#150 = DIRECTION ( 'NONE',  ( 0.0000000000000000000, 1.000000000000000000, 0.0000000000000000000 ) ) ;
#151 = PERSON_AND_ORGANIZATION_ROLE ( 'design_owner' ) ;
#152 = DATE_TIME_ROLE ( 'creation_date' ) ;
#153 = COORDINATED_UNIVERSAL_TIME_OFFSET ( 1, 0, .AHEAD. ) ;
#154 = CONICAL_SURFACE ( 'NONE', #72, 0.9049999999999935874, 1.029744258676649649 ) ;
#155 = PERSON_AND_ORGANIZATION ( #22, #43 ) ;
#156 = AXIS2_PLACEMENT_3D ( 'NONE', #33, #115, #150 ) ;
#157 = CC_DESIGN_APPROVAL ( #206, ( #210 ) ) ;
#158 = CALENDAR_DATE ( 2021, 7, 10 ) ;
#159 = PRODUCT_RELATED_PRODUCT_CATEGORY ( 'detail', '', ( #17 ) ) ;
#160 = ORIENTED_EDGE ( 'NONE', *, *, #19, .F. ) ;
#161 = DIRECTION ( 'NONE',  ( 4.256198772126518122E-31, 1.000000000000000000, 1.198013450260234352E-16 ) ) ;
#162 = PLANE ( 'NONE',  #136 ) ;
#163 = DIRECTION ( 'NONE',  ( -4.256198772126518122E-31, -1.000000000000000000, -1.198013450260234352E-16 ) ) ;
#164 = DIRECTION ( 'NONE',  ( -3.491481338843133355E-15, 1.224646799147353207E-16, -1.000000000000000000 ) ) ;
#165 = APPROVAL ( #137, 'UNSPECIFIED' ) ;
#166 = CARTESIAN_POINT ( 'NONE',  ( 4.189777606611760026E-14, 0.9049999999999925882, 12.00000000000000000 ) ) ;
#167 = CYLINDRICAL_SURFACE ( 'NONE', #207, 0.9999999999999983347 ) ;
#168 = DATE_AND_TIME ( #102, #170 ) ;
#169 = DESIGN_CONTEXT ( 'detailed design', #149, 'design' ) ;
#170 = LOCAL_TIME ( 15, 48, 23.00000000000000000, #171 ) ;
#171 = COORDINATED_UNIVERSAL_TIME_OFFSET ( 1, 0, .AHEAD. ) ;
#172 = DATE_TIME_ROLE ( 'classification_date' ) ;
#173 = CC_DESIGN_PERSON_AND_ORGANIZATION_ASSIGNMENT ( #204, #151, ( #17 ) ) ;
#174 = APPROVAL_PERSON_ORGANIZATION ( #105, #206, #189 ) ;
#175 = APPROVAL_DATE_TIME ( #168, #206 ) ;
#176 = ORIENTED_EDGE ( 'NONE', *, *, #83, .T. ) ;
#177 = UNCERTAINTY_MEASURE_WITH_UNIT (LENGTH_MEASURE( 1.000000000000000082E-05 ), #208, 'distance_accuracy_value', 'NONE');
#178 = CC_DESIGN_PERSON_AND_ORGANIZATION_ASSIGNMENT ( #155, #89, ( #64 ) ) ;
#179 = EDGE_LOOP ( 'NONE', ( #55 ) ) ;
#180 = SHAPE_DEFINITION_REPRESENTATION ( #141, #88 ) ;
#181 = DIRECTION ( 'NONE',  ( -3.491481338843133355E-15, 1.224646799147353207E-16, -1.000000000000000000 ) ) ;
#182 = EDGE_LOOP ( 'NONE', ( #5 ) ) ;
#183 = DIRECTION ( 'NONE',  ( 4.275831445896958607E-31, 1.000000000000000000, 1.224646799147353207E-16 ) ) ;
#184 = LOCAL_TIME ( 15, 48, 23.00000000000000000, #57 ) ;
#185 = DIRECTION ( 'NONE',  ( 3.491481338843133355E-15, -1.224646799147353207E-16, 1.000000000000000000 ) ) ;
#186 = CARTESIAN_POINT ( 'NONE',  ( 4.189777606611760026E-14, -1.469576158976823947E-15, 12.00000000000000000 ) ) ;
#187 = APPLICATION_CONTEXT ( 'configuration controlled 3d designs of mechanical parts and assemblies' ) ;
#188 = CARTESIAN_POINT ( 'NONE',  ( 4.189777606611760026E-14, -1.469576158976823947E-15, 12.00000000000000000 ) ) ;
#189 = APPROVAL_ROLE ( '' ) ;
#190 = APPROVAL_ROLE ( '' ) ;
#191 = APPROVAL ( #139, 'UNSPECIFIED' ) ;
#192 = APPROVAL_STATUS ( 'not_yet_approved' ) ;
#193 = VERTEX_POINT ( 'NONE', #221 ) ;
#194 = EDGE_LOOP ( 'NONE', ( #24 ) ) ;
#195 = ORIENTED_EDGE ( 'NONE', *, *, #73, .T. ) ;
#196 = EDGE_CURVE ( 'NONE', #193, #193, #77, .T. ) ;
#197 = DIRECTION ( 'NONE',  ( -3.491481338843133355E-15, 1.224646799147353207E-16, -1.000000000000000000 ) ) ;
#198 = FACE_BOUND ( 'NONE', #58, .T. ) ;
#199 = CLOSED_SHELL ( 'NONE', ( #42, #111, #56 ) ) ;
#200 = DIRECTION ( 'NONE',  ( -3.491481338843133355E-15, 1.224646799147353207E-16, -1.000000000000000000 ) ) ;
#201 = CC_DESIGN_DATE_AND_TIME_ASSIGNMENT ( #220, #152, ( #210 ) ) ;
#202 = CARTESIAN_POINT ( 'NONE',  ( 4.189777606611760026E-14, 0.9049999999999925882, 12.00000000000000000 ) ) ;
#203 = DIRECTION ( 'NONE',  ( 0.0000000000000000000, 1.000000000000000000, 0.0000000000000000000 ) ) ;
#204 = PERSON_AND_ORGANIZATION ( #22, #43 ) ;
#205 = DATE_AND_TIME ( #14, #74 ) ;
#206 = APPROVAL ( #192, 'UNSPECIFIED' ) ;
#207 = AXIS2_PLACEMENT_3D ( 'NONE', #114, #164, #183 ) ;
#208 =( LENGTH_UNIT ( ) NAMED_UNIT ( * ) SI_UNIT ( .MILLI., .METRE. ) );
#209 = APPROVAL_PERSON_ORGANIZATION ( #20, #191, #108 ) ;
#210 = PRODUCT_DEFINITION ( 'UNKNOWN', '', #60, #169 ) ;
#211 = ORIENTED_EDGE ( 'NONE', *, *, #52, .T. ) ;
#212 = ORIENTED_EDGE ( 'NONE', *, *, #61, .F. ) ;
#213 = FACE_OUTER_BOUND ( 'NONE', #121, .T. ) ;
#214 = DIRECTION ( 'NONE',  ( 0.0000000000000000000, 1.000000000000000000, 0.0000000000000000000 ) ) ;
#215 = DIRECTION ( 'NONE',  ( 0.0000000000000000000, 1.000000000000000000, 0.0000000000000000000 ) ) ;
#216 = FACE_OUTER_BOUND ( 'NONE', #194, .T. ) ;
#217 = CC_DESIGN_PERSON_AND_ORGANIZATION_ASSIGNMENT ( #134, #119, ( #210 ) ) ;
#218 = DIRECTION ( 'NONE',  ( -3.491481338843133355E-15, 1.224646799147353207E-16, -1.000000000000000000 ) ) ;
#219 = VERTEX_POINT ( 'NONE', #104 ) ;
#220 = DATE_AND_TIME ( #87, #53 ) ;
#221 = CARTESIAN_POINT ( 'NONE',  ( 4.247228125801033871E-14, 0.9999999999999954481, 12.16454482671904991 ) ) ;
#222 = SECURITY_CLASSIFICATION_LEVEL ( 'unclassified' ) ;
#223 = CONICAL_SURFACE ( 'NONE', #37, 0.7999999999999996003, 0.7853981633974507215 ) ;
ENDSEC;
END-ISO-10303-21;
