ISO-10303-21;
HEADER;
FILE_DESCRIPTION (( 'STEP AP203' ),
    '1' );
FILE_NAME ('58335.step',
    '2021-10-08T05:54:06',
    ( '' ),
    ( '' ),
    'SwSTEP 2.0',
    'SolidWorks 2019',
    '' );
FILE_SCHEMA (( 'CONFIG_CONTROL_DESIGN' ));
ENDSEC;

DATA;
#1 = DIRECTION ( 'NONE',  ( 0.0000000000000000000, 1.000000000000000000, 0.0000000000000000000 ) ) ;
#2 = FACE_OUTER_BOUND ( 'NONE', #185, .T. ) ;
#3 = CARTESIAN_POINT ( 'NONE',  ( 1.078457114605636702E-15, -3.782718351452204144E-17, 0.3088823940164527326 ) ) ;
#4 = CARTESIAN_POINT ( 'NONE',  ( 1.078457114605636899E-15, 0.5349999999999989209, 0.3088823940164527881 ) ) ;
#5 = DIRECTION ( 'NONE',  ( -3.491481338843133355E-15, 1.224646799147353207E-16, -1.000000000000000000 ) ) ;
#6 = PERSON_AND_ORGANIZATION ( #182, #138 ) ;
#7 = PERSON_AND_ORGANIZATION ( #182, #138 ) ;
#8 = DATE_TIME_ROLE ( 'classification_date' ) ;
#9 = ORIENTED_EDGE ( 'NONE', *, *, #194, .F. ) ;
#10 = CARTESIAN_POINT ( 'NONE',  ( 3.142333204958820020E-14, -1.102182119232617714E-15, 9.000000000000000000 ) ) ;
#11 = AXIS2_PLACEMENT_3D ( 'NONE', #211, #53, #119 ) ;
#12 = FACE_OUTER_BOUND ( 'NONE', #170, .T. ) ;
#13 = FACE_BOUND ( 'NONE', #63, .T. ) ;
#14 = EDGE_LOOP ( 'NONE', ( #150 ) ) ;
#15 = AXIS2_PLACEMENT_3D ( 'NONE', #139, #120, #174 ) ;
#16 = APPROVAL_ROLE ( '' ) ;
#17 = APPROVAL_ROLE ( '' ) ;
#18 = CALENDAR_DATE ( 2021, 8, 10 ) ;
#19 =( GEOMETRIC_REPRESENTATION_CONTEXT ( 3 ) GLOBAL_UNCERTAINTY_ASSIGNED_CONTEXT ( ( #34 ) ) GLOBAL_UNIT_ASSIGNED_CONTEXT ( ( #136, #88, #32 ) ) REPRESENTATION_CONTEXT ( 'NONE', 'WORKASPACE' ) );
#20 = AXIS2_PLACEMENT_3D ( 'NONE', #223, #98, #114 ) ;
#21 = DIRECTION ( 'NONE',  ( 4.275831445896958607E-31, 1.000000000000000000, 1.224646799147353207E-16 ) ) ;
#22 = ADVANCED_BREP_SHAPE_REPRESENTATION ( '58335', ( #84, #154, #11 ), #19 ) ;
#23 = CARTESIAN_POINT ( 'NONE',  ( 3.142333204958820020E-14, 4.011857418620466911E-33, 9.000000000000000000 ) ) ;
#24 = ORIENTED_EDGE ( 'NONE', *, *, #107, .T. ) ;
#25 = AXIS2_PLACEMENT_3D ( 'NONE', #3, #64, #118 ) ;
#26 = CC_DESIGN_APPROVAL ( #77, ( #121 ) ) ;
#27 = CC_DESIGN_DATE_AND_TIME_ASSIGNMENT ( #39, #8, ( #121 ) ) ;
#28 = DIRECTION ( 'NONE',  ( -3.491481338843133355E-15, 1.224646799147353207E-16, -1.000000000000000000 ) ) ;
#29 = VERTEX_POINT ( 'NONE', #4 ) ;
#30 = AXIS2_PLACEMENT_3D ( 'NONE', #110, #97, #166 ) ;
#31 = AXIS2_PLACEMENT_3D ( 'NONE', #65, #191, #70 ) ;
#32 =( NAMED_UNIT ( * ) SI_UNIT ( $, .STERADIAN. ) SOLID_ANGLE_UNIT ( ) );
#33 = CC_DESIGN_PERSON_AND_ORGANIZATION_ASSIGNMENT ( #176, #90, ( #115 ) ) ;
#34 = UNCERTAINTY_MEASURE_WITH_UNIT (LENGTH_MEASURE( 1.000000000000000082E-05 ), #136, 'distance_accuracy_value', 'NONE');
#35 = MECHANICAL_CONTEXT ( 'NONE', #214, 'mechanical' ) ;
#36 = APPLICATION_PROTOCOL_DEFINITION ( 'international standard', 'config_control_design', 1994, #216 ) ;
#37 = CC_DESIGN_APPROVAL ( #81, ( #171 ) ) ;
#38 = SHAPE_DEFINITION_REPRESENTATION ( #109, #22 ) ;
#39 = DATE_AND_TIME ( #144, #66 ) ;
#40 = AXIS2_PLACEMENT_3D ( 'NONE', #23, #101, #172 ) ;
#41 = CC_DESIGN_APPROVAL ( #181, ( #140 ) ) ;
#42 = ADVANCED_FACE ( 'NONE', ( #12, #62 ), #60, .T. ) ;
#43 = CARTESIAN_POINT ( 'NONE',  ( 1.047444401652940007E-13, 4.124339402320052999E-33, 30.00000000000000000 ) ) ;
#44 = AXIS2_PLACEMENT_3D ( 'NONE', #208, #221, #173 ) ;
#45 = DIRECTION ( 'NONE',  ( 4.275831445896957731E-31, 1.000000000000000000, 1.224646799147353207E-16 ) ) ;
#46 = EDGE_LOOP ( 'NONE', ( #113 ) ) ;
#47 = EDGE_LOOP ( 'NONE', ( #78 ) ) ;
#48 = ORIENTED_EDGE ( 'NONE', *, *, #188, .F. ) ;
#49 = CARTESIAN_POINT ( 'NONE',  ( 1.040461438975253740E-13, 0.7499999999999964473, 29.80000000000000071 ) ) ;
#50 = CARTESIAN_POINT ( 'NONE',  ( 1.047444401652940007E-13, 0.5499999999999963807, 30.00000000000000000 ) ) ;
#51 = DESIGN_CONTEXT ( 'detailed design', #216, 'design' ) ;
#52 = CIRCLE ( 'NONE', #15, 0.7500000000000001110 ) ;
#53 = DIRECTION ( 'NONE',  ( 0.0000000000000000000, 0.0000000000000000000, 1.000000000000000000 ) ) ;
#54 = DIRECTION ( 'NONE',  ( -3.491481338843133355E-15, 1.224646799147353207E-16, -1.000000000000000000 ) ) ;
#55 = DATE_AND_TIME ( #215, #133 ) ;
#56 = APPROVAL_DATE_TIME ( #55, #181 ) ;
#57 = PERSON_AND_ORGANIZATION ( #182, #138 ) ;
#58 = PERSON_AND_ORGANIZATION ( #182, #138 ) ;
#59 = FACE_OUTER_BOUND ( 'NONE', #46, .T. ) ;
#60 = CYLINDRICAL_SURFACE ( 'NONE', #89, 0.5350000000000003642 ) ;
#61 = DIRECTION ( 'NONE',  ( -3.491481338843133355E-15, 1.224646799147353207E-16, -1.000000000000000000 ) ) ;
#62 = FACE_OUTER_BOUND ( 'NONE', #146, .T. ) ;
#63 = EDGE_LOOP ( 'NONE', ( #82 ) ) ;
#64 = DIRECTION ( 'NONE',  ( -3.491481338843133355E-15, 1.224646799147353207E-16, -1.000000000000000000 ) ) ;
#65 = CARTESIAN_POINT ( 'NONE',  ( 1.078457114605636702E-15, -3.782718351452204144E-17, 0.3088823940164527326 ) ) ;
#66 = LOCAL_TIME ( 7, 54, 6.000000000000000000, #76 ) ;
#67 = CARTESIAN_POINT ( 'NONE',  ( 3.142333204958820020E-14, 0.5350000000000008082, 9.000000000000000000 ) ) ;
#68 = CC_DESIGN_PERSON_AND_ORGANIZATION_ASSIGNMENT ( #92, #179, ( #140 ) ) ;
#69 = FACE_OUTER_BOUND ( 'NONE', #222, .T. ) ;
#70 = DIRECTION ( 'NONE',  ( -3.599869054929420229E-31, -1.000000000000000000, -1.013273058397669784E-16 ) ) ;
#71 = APPROVAL_ROLE ( '' ) ;
#72 = CLOSED_SHELL ( 'NONE', ( #112, #143, #192, #75, #149 ) ) ;
#73 = LOCAL_TIME ( 7, 54, 6.000000000000000000, #108 ) ;
#74 = APPROVAL_DATE_TIME ( #180, #77 ) ;
#75 = ADVANCED_FACE ( 'NONE', ( #99, #13 ), #177, .T. ) ;
#76 = COORDINATED_UNIVERSAL_TIME_OFFSET ( 1, 0, .AHEAD. ) ;
#77 = APPROVAL ( #105, 'UNSPECIFIED' ) ;
#78 = ORIENTED_EDGE ( 'NONE', *, *, #85, .T. ) ;
#79 = EDGE_LOOP ( 'NONE', ( #190 ) ) ;
#80 = CARTESIAN_POINT ( 'NONE',  ( 3.272352801018751444E-14, -1.147786854497788896E-15, 9.372390923627309078 ) ) ;
#81 = APPROVAL ( #164, 'UNSPECIFIED' ) ;
#82 = ORIENTED_EDGE ( 'NONE', *, *, #212, .T. ) ;
#83 = PLANE ( 'NONE',  #204 ) ;
#84 = MANIFOLD_SOLID_BREP ( 'Corps-Déplacer/Copier1[1]', #72 ) ;
#85 = EDGE_CURVE ( 'NONE', #91, #91, #147, .T. ) ;
#86 = FACE_OUTER_BOUND ( 'NONE', #14, .T. ) ;
#87 = CARTESIAN_POINT ( 'NONE',  ( 1.047444401652940007E-13, -3.673940397442059178E-15, 30.00000000000000000 ) ) ;
#88 =( NAMED_UNIT ( * ) PLANE_ANGLE_UNIT ( ) SI_UNIT ( $, .RADIAN. ) );
#89 = AXIS2_PLACEMENT_3D ( 'NONE', #206, #28, #45 ) ;
#90 = PERSON_AND_ORGANIZATION_ROLE ( 'design_owner' ) ;
#91 = VERTEX_POINT ( 'NONE', #213 ) ;
#92 = PERSON_AND_ORGANIZATION ( #182, #138 ) ;
#93 = PERSON_AND_ORGANIZATION_ROLE ( 'design_supplier' ) ;
#94 = CIRCLE ( 'NONE', #25, 0.5349999999999989209 ) ;
#95 = COORDINATED_UNIVERSAL_TIME_OFFSET ( 1, 0, .AHEAD. ) ;
#96 = AXIS2_PLACEMENT_3D ( 'NONE', #87, #135, #210 ) ;
#97 = DIRECTION ( 'NONE',  ( 3.491481338843133355E-15, -1.224646799147353207E-16, 1.000000000000000000 ) ) ;
#98 = DIRECTION ( 'NONE',  ( -3.491481338843133355E-15, 1.224646799147353207E-16, -1.000000000000000000 ) ) ;
#99 = FACE_OUTER_BOUND ( 'NONE', #205, .T. ) ;
#100 = PLANE ( 'NONE',  #40 ) ;
#101 = DIRECTION ( 'NONE',  ( 3.491481338843133355E-15, -1.224646799147353207E-16, 1.000000000000000000 ) ) ;
#102 = APPLICATION_PROTOCOL_DEFINITION ( 'international standard', 'config_control_design', 1994, #214 ) ;
#103 = CARTESIAN_POINT ( 'NONE',  ( 0.0000000000000000000, 0.0000000000000000000, 0.0000000000000000000 ) ) ;
#104 = PERSON_AND_ORGANIZATION ( #182, #138 ) ;
#105 = APPROVAL_STATUS ( 'not_yet_approved' ) ;
#106 = APPROVAL_PERSON_ORGANIZATION ( #104, #181, #16 ) ;
#107 = EDGE_CURVE ( 'NONE', #158, #158, #218, .T. ) ;
#108 = COORDINATED_UNIVERSAL_TIME_OFFSET ( 1, 0, .AHEAD. ) ;
#109 = PRODUCT_DEFINITION_SHAPE ( 'NONE', 'NONE',  #140 ) ;
#110 = CARTESIAN_POINT ( 'NONE',  ( 3.142333204958820020E-14, 4.011857418620466911E-33, 9.000000000000000000 ) ) ;
#111 = FACE_OUTER_BOUND ( 'NONE', #187, .T. ) ;
#112 = ADVANCED_FACE ( 'NONE', ( #151 ), #100, .F. ) ;
#113 = ORIENTED_EDGE ( 'NONE', *, *, #212, .F. ) ;
#114 = DIRECTION ( 'NONE',  ( 0.0000000000000000000, 1.000000000000000000, 0.0000000000000000000 ) ) ;
#115 = PRODUCT ( '58335', '58335', '', ( #35 ) ) ;
#116 = CC_DESIGN_DATE_AND_TIME_ASSIGNMENT ( #124, #220, ( #140 ) ) ;
#117 = ORIENTED_EDGE ( 'NONE', *, *, #165, .T. ) ;
#118 = DIRECTION ( 'NONE',  ( 3.599869054929420229E-31, 1.000000000000000000, 1.013273058397669784E-16 ) ) ;
#119 = DIRECTION ( 'NONE',  ( 1.000000000000000000, 0.0000000000000000000, 0.0000000000000000000 ) ) ;
#120 = DIRECTION ( 'NONE',  ( -3.491481338843133355E-15, 1.224646799147353207E-16, -1.000000000000000000 ) ) ;
#121 = SECURITY_CLASSIFICATION ( '', '', #199 ) ;
#122 = DATE_AND_TIME ( #125, #157 ) ;
#123 = CC_DESIGN_PERSON_AND_ORGANIZATION_ASSIGNMENT ( #58, #93, ( #171 ) ) ;
#124 = DATE_AND_TIME ( #18, #73 ) ;
#125 = CALENDAR_DATE ( 2021, 8, 10 ) ;
#126 = CONICAL_SURFACE ( 'NONE', #44, 0.7499999999999975575, 0.5235987755982882685 ) ;
#127 = LOCAL_TIME ( 7, 54, 6.000000000000000000, #161 ) ;
#128 = ORIENTED_EDGE ( 'NONE', *, *, #85, .F. ) ;
#129 = CC_DESIGN_PERSON_AND_ORGANIZATION_ASSIGNMENT ( #142, #162, ( #121 ) ) ;
#130 = CARTESIAN_POINT ( 'NONE',  ( 1.047444401652940007E-13, -3.673940397442059178E-15, 30.00000000000000000 ) ) ;
#131 = ORIENTED_EDGE ( 'NONE', *, *, #194, .T. ) ;
#132 = FACE_BOUND ( 'NONE', #207, .T. ) ;
#133 = LOCAL_TIME ( 7, 54, 6.000000000000000000, #217 ) ;
#134 = PLANE ( 'NONE',  #30 ) ;
#135 = DIRECTION ( 'NONE',  ( -3.491481338843133355E-15, 1.224646799147353207E-16, -1.000000000000000000 ) ) ;
#136 =( LENGTH_UNIT ( ) NAMED_UNIT ( * ) SI_UNIT ( .MILLI., .METRE. ) );
#137 = CIRCLE ( 'NONE', #159, 0.5350000000000018074 ) ;
#138 = ORGANIZATION ( 'UNSPECIFIED', 'UNSPECIFIED', '' ) ;
#139 = CARTESIAN_POINT ( 'NONE',  ( 1.040461438975253740E-13, -3.649447461459112464E-15, 29.80000000000000071 ) ) ;
#140 = PRODUCT_DEFINITION ( 'UNKNOWN', '', #171, #51 ) ;
#141 = CIRCLE ( 'NONE', #96, 0.5500000000000000444 ) ;
#142 = PERSON_AND_ORGANIZATION ( #182, #138 ) ;
#143 = ADVANCED_FACE ( 'NONE', ( #132, #111 ), #126, .T. ) ;
#144 = CALENDAR_DATE ( 2021, 8, 10 ) ;
#145 = CC_DESIGN_PERSON_AND_ORGANIZATION_ASSIGNMENT ( #57, #203, ( #171 ) ) ;
#146 = EDGE_LOOP ( 'NONE', ( #117 ) ) ;
#147 = CIRCLE ( 'NONE', #20, 0.5350000000000018074 ) ;
#148 = ORIENTED_EDGE ( 'NONE', *, *, #165, .F. ) ;
#149 = ADVANCED_FACE ( 'NONE', ( #59 ), #83, .F. ) ;
#150 = ORIENTED_EDGE ( 'NONE', *, *, #107, .F. ) ;
#151 = FACE_OUTER_BOUND ( 'NONE', #47, .T. ) ;
#152 = AXIS2_PLACEMENT_3D ( 'NONE', #80, #61, #189 ) ;
#153 = VERTEX_POINT ( 'NONE', #49 ) ;
#154 = MANIFOLD_SOLID_BREP ( 'Corps-Déplacer/Copier1[2]', #200 ) ;
#155 = DIRECTION ( 'NONE',  ( 4.275831445896959482E-31, 1.000000000000000000, 1.224646799147353207E-16 ) ) ;
#156 = DIRECTION ( 'NONE',  ( 0.0000000000000000000, 1.000000000000000000, 0.0000000000000000000 ) ) ;
#157 = LOCAL_TIME ( 7, 54, 6.000000000000000000, #95 ) ;
#158 = VERTEX_POINT ( 'NONE', #193 ) ;
#159 = AXIS2_PLACEMENT_3D ( 'NONE', #10, #54, #156 ) ;
#160 = APPROVAL_PERSON_ORGANIZATION ( #7, #77, #17 ) ;
#161 = COORDINATED_UNIVERSAL_TIME_OFFSET ( 1, 0, .AHEAD. ) ;
#162 = PERSON_AND_ORGANIZATION_ROLE ( 'classification_officer' ) ;
#163 = ADVANCED_FACE ( 'NONE', ( #2 ), #134, .T. ) ;
#164 = APPROVAL_STATUS ( 'not_yet_approved' ) ;
#165 = EDGE_CURVE ( 'NONE', #209, #209, #137, .T. ) ;
#166 = DIRECTION ( 'NONE',  ( -4.275831445896958607E-31, -1.000000000000000000, -1.224646799147353207E-16 ) ) ;
#167 = DIRECTION ( 'NONE',  ( -3.491481338843133355E-15, 1.224646799147353207E-16, -1.000000000000000000 ) ) ;
#168 = AXIS2_PLACEMENT_3D ( 'NONE', #103, #5, #155 ) ;
#169 = APPROVAL_PERSON_ORGANIZATION ( #6, #81, #71 ) ;
#170 = EDGE_LOOP ( 'NONE', ( #48 ) ) ;
#171 = PRODUCT_DEFINITION_FORMATION_WITH_SPECIFIED_SOURCE ( 'ANY', '', #115, .NOT_KNOWN. ) ;
#172 = DIRECTION ( 'NONE',  ( -4.275831445896958607E-31, -1.000000000000000000, -1.224646799147353207E-16 ) ) ;
#173 = DIRECTION ( 'NONE',  ( 0.0000000000000000000, -1.000000000000000000, 0.0000000000000000000 ) ) ;
#174 = DIRECTION ( 'NONE',  ( 0.0000000000000000000, 1.000000000000000000, 0.0000000000000000000 ) ) ;
#175 = FACE_OUTER_BOUND ( 'NONE', #79, .T. ) ;
#176 = PERSON_AND_ORGANIZATION ( #182, #138 ) ;
#177 = CONICAL_SURFACE ( 'NONE', #183, 0.5500000000000000444, 0.7853981633974516097 ) ;
#178 = APPROVAL_STATUS ( 'not_yet_approved' ) ;
#179 = PERSON_AND_ORGANIZATION_ROLE ( 'creator' ) ;
#180 = DATE_AND_TIME ( #198, #127 ) ;
#181 = APPROVAL ( #178, 'UNSPECIFIED' ) ;
#182 = PERSON ( 'UNSPECIFIED', 'UNSPECIFIED', 'UNSPECIFIED', ('UNSPECIFIED'), ('UNSPECIFIED'), ('UNSPECIFIED') ) ;
#183 = AXIS2_PLACEMENT_3D ( 'NONE', #130, #186, #1 ) ;
#184 = CONICAL_SURFACE ( 'NONE', #31, 0.5349999999999989209, 1.047197551196592746 ) ;
#185 = EDGE_LOOP ( 'NONE', ( #148 ) ) ;
#186 = DIRECTION ( 'NONE',  ( -3.491481338843133355E-15, 1.224646799147353207E-16, -1.000000000000000000 ) ) ;
#187 = EDGE_LOOP ( 'NONE', ( #24 ) ) ;
#188 = EDGE_CURVE ( 'NONE', #29, #29, #94, .T. ) ;
#189 = DIRECTION ( 'NONE',  ( 0.0000000000000000000, 1.000000000000000000, 0.0000000000000000000 ) ) ;
#190 = ORIENTED_EDGE ( 'NONE', *, *, #188, .T. ) ;
#191 = DIRECTION ( 'NONE',  ( 3.491481338843133355E-15, -1.224646799147353207E-16, 1.000000000000000000 ) ) ;
#192 = ADVANCED_FACE ( 'NONE', ( #86, #69 ), #195, .T. ) ;
#193 = CARTESIAN_POINT ( 'NONE',  ( 3.272352801018751444E-14, 0.7499999999999963363, 9.372390923627309078 ) ) ;
#194 = EDGE_CURVE ( 'NONE', #153, #153, #52, .T. ) ;
#195 = CYLINDRICAL_SURFACE ( 'NONE', #168, 0.7499999999999987788 ) ;
#196 = VERTEX_POINT ( 'NONE', #50 ) ;
#197 = APPROVAL_DATE_TIME ( #122, #81 ) ;
#198 = CALENDAR_DATE ( 2021, 8, 10 ) ;
#199 = SECURITY_CLASSIFICATION_LEVEL ( 'unclassified' ) ;
#200 = CLOSED_SHELL ( 'NONE', ( #202, #42, #163 ) ) ;
#201 = CC_DESIGN_SECURITY_CLASSIFICATION ( #121, ( #171 ) ) ;
#202 = ADVANCED_FACE ( 'NONE', ( #175 ), #184, .T. ) ;
#203 = PERSON_AND_ORGANIZATION_ROLE ( 'creator' ) ;
#204 = AXIS2_PLACEMENT_3D ( 'NONE', #43, #167, #21 ) ;
#205 = EDGE_LOOP ( 'NONE', ( #9 ) ) ;
#206 = CARTESIAN_POINT ( 'NONE',  ( 0.0000000000000000000, 0.0000000000000000000, 0.0000000000000000000 ) ) ;
#207 = EDGE_LOOP ( 'NONE', ( #128 ) ) ;
#208 = CARTESIAN_POINT ( 'NONE',  ( 3.272352801018751444E-14, -1.147786854497788896E-15, 9.372390923627309078 ) ) ;
#209 = VERTEX_POINT ( 'NONE', #67 ) ;
#210 = DIRECTION ( 'NONE',  ( 0.0000000000000000000, 1.000000000000000000, 0.0000000000000000000 ) ) ;
#211 = CARTESIAN_POINT ( 'NONE',  ( 0.0000000000000000000, 0.0000000000000000000, 0.0000000000000000000 ) ) ;
#212 = EDGE_CURVE ( 'NONE', #196, #196, #141, .T. ) ;
#213 = CARTESIAN_POINT ( 'NONE',  ( 3.142333204958820020E-14, 0.5350000000000008082, 9.000000000000000000 ) ) ;
#214 = APPLICATION_CONTEXT ( 'configuration controlled 3d designs of mechanical parts and assemblies' ) ;
#215 = CALENDAR_DATE ( 2021, 8, 10 ) ;
#216 = APPLICATION_CONTEXT ( 'configuration controlled 3d designs of mechanical parts and assemblies' ) ;
#217 = COORDINATED_UNIVERSAL_TIME_OFFSET ( 1, 0, .AHEAD. ) ;
#218 = CIRCLE ( 'NONE', #152, 0.7499999999999975575 ) ;
#219 = PRODUCT_RELATED_PRODUCT_CATEGORY ( 'detail', '', ( #115 ) ) ;
#220 = DATE_TIME_ROLE ( 'creation_date' ) ;
#221 = DIRECTION ( 'NONE',  ( 3.491481338843133355E-15, -1.224646799147353207E-16, 1.000000000000000000 ) ) ;
#222 = EDGE_LOOP ( 'NONE', ( #131 ) ) ;
#223 = CARTESIAN_POINT ( 'NONE',  ( 3.142333204958820020E-14, -1.102182119232617714E-15, 9.000000000000000000 ) ) ;
ENDSEC;
END-ISO-10303-21;
