ISO-10303-21;
HEADER;
FILE_DESCRIPTION (( 'STEP AP203' ),
    '1' );
FILE_NAME ('58334.step',
    '2021-10-08T05:54:06',
    ( '' ),
    ( '' ),
    'SwSTEP 2.0',
    'SolidWorks 2019',
    '' );
FILE_SCHEMA (( 'CONFIG_CONTROL_DESIGN' ));
ENDSEC;

DATA;
#1 = APPROVAL_ROLE ( '' ) ;
#2 = CC_DESIGN_APPROVAL ( #76, ( #91 ) ) ;
#3 = MECHANICAL_CONTEXT ( 'NONE', #142, 'mechanical' ) ;
#4 = ORIENTED_EDGE ( 'NONE', *, *, #177, .T. ) ;
#5 = CIRCLE ( 'NONE', #118, 0.7499999999999975575 ) ;
#6 = CARTESIAN_POINT ( 'NONE',  ( 0.0000000000000000000, 0.0000000000000000000, 0.0000000000000000000 ) ) ;
#7 = AXIS2_PLACEMENT_3D ( 'NONE', #10, #199, #218 ) ;
#8 = VERTEX_POINT ( 'NONE', #130 ) ;
#9 = CC_DESIGN_APPROVAL ( #103, ( #154 ) ) ;
#10 = CARTESIAN_POINT ( 'NONE',  ( 3.142333204958820020E-14, 3.824387445787722394E-33, 9.000000000000000000 ) ) ;
#11 = EDGE_CURVE ( 'NONE', #117, #117, #179, .T. ) ;
#12 = CARTESIAN_POINT ( 'NONE',  ( 1.028061922334344963E-15, -3.605955811664716495E-17, 0.2944486372867118340 ) ) ;
#13 = DIRECTION ( 'NONE',  ( -4.275831445896958607E-31, -1.000000000000000000, -1.224646799147353207E-16 ) ) ;
#14 = AXIS2_PLACEMENT_3D ( 'NONE', #132, #167, #166 ) ;
#15 = FACE_OUTER_BOUND ( 'NONE', #159, .T. ) ;
#16 = EDGE_CURVE ( 'NONE', #8, #8, #5, .T. ) ;
#17 = COORDINATED_UNIVERSAL_TIME_OFFSET ( 1, 0, .AHEAD. ) ;
#18 = CALENDAR_DATE ( 2021, 8, 10 ) ;
#19 = LOCAL_TIME ( 7, 54, 6.000000000000000000, #17 ) ;
#20 = CC_DESIGN_PERSON_AND_ORGANIZATION_ASSIGNMENT ( #157, #141, ( #154 ) ) ;
#21 = PERSON_AND_ORGANIZATION ( #113, #105 ) ;
#22 = UNCERTAINTY_MEASURE_WITH_UNIT (LENGTH_MEASURE( 1.000000000000000082E-05 ), #29, 'distance_accuracy_value', 'NONE');
#23 = CARTESIAN_POINT ( 'NONE',  ( 1.047444401652940007E-13, -3.673940397442059178E-15, 30.00000000000000000 ) ) ;
#24 = CARTESIAN_POINT ( 'NONE',  ( 3.142333204958820020E-14, -1.102182119232617714E-15, 9.000000000000000000 ) ) ;
#25 = EDGE_LOOP ( 'NONE', ( #198 ) ) ;
#26 = CARTESIAN_POINT ( 'NONE',  ( 0.0000000000000000000, 0.0000000000000000000, 0.0000000000000000000 ) ) ;
#27 = DIRECTION ( 'NONE',  ( 4.275831445896959482E-31, 1.000000000000000000, 1.224646799147353207E-16 ) ) ;
#28 = APPROVAL_PERSON_ORGANIZATION ( #175, #62, #122 ) ;
#29 =( LENGTH_UNIT ( ) NAMED_UNIT ( * ) SI_UNIT ( .MILLI., .METRE. ) );
#30 = DIRECTION ( 'NONE',  ( -3.491481338843133355E-15, 1.224646799147353207E-16, -1.000000000000000000 ) ) ;
#31 = CIRCLE ( 'NONE', #127, 0.5099999999999988987 ) ;
#32 = LOCAL_TIME ( 7, 54, 6.000000000000000000, #187 ) ;
#33 = CALENDAR_DATE ( 2021, 8, 10 ) ;
#34 = PRODUCT ( '58334', '58334', '', ( #3 ) ) ;
#35 = DATE_AND_TIME ( #52, #32 ) ;
#36 = LOCAL_TIME ( 7, 54, 6.000000000000000000, #208 ) ;
#37 = CARTESIAN_POINT ( 'NONE',  ( 3.287471358700138965E-14, -1.153089730691413526E-15, 9.415692193816532551 ) ) ;
#38 = DESIGN_CONTEXT ( 'detailed design', #186, 'design' ) ;
#39 = EDGE_CURVE ( 'NONE', #168, #168, #50, .T. ) ;
#40 = EDGE_LOOP ( 'NONE', ( #212 ) ) ;
#41 = ORIENTED_EDGE ( 'NONE', *, *, #11, .T. ) ;
#42 = FACE_OUTER_BOUND ( 'NONE', #106, .T. ) ;
#43 = CONICAL_SURFACE ( 'NONE', #183, 0.5099999999999988987, 1.047197551196592746 ) ;
#44 = DIRECTION ( 'NONE',  ( 3.491481338843133355E-15, -1.224646799147353207E-16, 1.000000000000000000 ) ) ;
#45 = LOCAL_TIME ( 7, 54, 6.000000000000000000, #172 ) ;
#46 = CARTESIAN_POINT ( 'NONE',  ( 3.142333204958820020E-14, 0.5099999999999991207, 9.000000000000000000 ) ) ;
#47 = DIRECTION ( 'NONE',  ( 0.0000000000000000000, 1.000000000000000000, 0.0000000000000000000 ) ) ;
#48 = ADVANCED_FACE ( 'NONE', ( #194, #88 ), #160, .T. ) ;
#49 = PERSON_AND_ORGANIZATION ( #113, #105 ) ;
#50 = CIRCLE ( 'NONE', #215, 0.5500000000000000444 ) ;
#51 = APPROVAL_STATUS ( 'not_yet_approved' ) ;
#52 = CALENDAR_DATE ( 2021, 8, 10 ) ;
#53 = CALENDAR_DATE ( 2021, 8, 10 ) ;
#54 = PRODUCT_RELATED_PRODUCT_CATEGORY ( 'detail', '', ( #34 ) ) ;
#55 = EDGE_LOOP ( 'NONE', ( #110 ) ) ;
#56 = EDGE_LOOP ( 'NONE', ( #164 ) ) ;
#57 = EDGE_LOOP ( 'NONE', ( #211 ) ) ;
#58 = CARTESIAN_POINT ( 'NONE',  ( 3.142333204958820020E-14, 0.5099999999999991207, 9.000000000000000000 ) ) ;
#59 = DIRECTION ( 'NONE',  ( -3.491481338843133355E-15, 1.224646799147353207E-16, -1.000000000000000000 ) ) ;
#60 = LOCAL_TIME ( 7, 54, 6.000000000000000000, #171 ) ;
#61 = DIRECTION ( 'NONE',  ( 3.491481338843133355E-15, -1.224646799147353207E-16, 1.000000000000000000 ) ) ;
#62 = APPROVAL ( #98, 'UNSPECIFIED' ) ;
#63 = CARTESIAN_POINT ( 'NONE',  ( 3.142333204958820020E-14, 3.824387445787722394E-33, 9.000000000000000000 ) ) ;
#64 = CARTESIAN_POINT ( 'NONE',  ( 1.047444401652940007E-13, -3.673940397442059178E-15, 30.00000000000000000 ) ) ;
#65 = DATE_AND_TIME ( #53, #36 ) ;
#66 = APPROVAL_DATE_TIME ( #222, #103 ) ;
#67 = PERSON_AND_ORGANIZATION ( #113, #105 ) ;
#68 = CONICAL_SURFACE ( 'NONE', #207, 0.5500000000000000444, 0.7853981633974516097 ) ;
#69 = MANIFOLD_SOLID_BREP ( 'Corps-Déplacer/Copier1[1]', #158 ) ;
#70 = DATE_AND_TIME ( #156, #60 ) ;
#71 = DIRECTION ( 'NONE',  ( 0.0000000000000000000, 1.000000000000000000, 0.0000000000000000000 ) ) ;
#72 = APPROVAL_PERSON_ORGANIZATION ( #49, #76, #1 ) ;
#73 = CARTESIAN_POINT ( 'NONE',  ( 3.142333204958820020E-14, -1.102182119232617714E-15, 9.000000000000000000 ) ) ;
#74 = FACE_OUTER_BOUND ( 'NONE', #56, .T. ) ;
#75 = CARTESIAN_POINT ( 'NONE',  ( 1.047444401652940007E-13, 4.124339402320052999E-33, 30.00000000000000000 ) ) ;
#76 = APPROVAL ( #155, 'UNSPECIFIED' ) ;
#77 = CONICAL_SURFACE ( 'NONE', #14, 0.7499999999999975575, 0.5235987755982915992 ) ;
#78 = DIRECTION ( 'NONE',  ( -3.491481338843133355E-15, 1.224646799147353207E-16, -1.000000000000000000 ) ) ;
#79 = FACE_BOUND ( 'NONE', #25, .T. ) ;
#80 = DATE_AND_TIME ( #33, #19 ) ;
#81 = PERSON_AND_ORGANIZATION ( #113, #105 ) ;
#82 = APPLICATION_PROTOCOL_DEFINITION ( 'international standard', 'config_control_design', 1994, #142 ) ;
#83 = DATE_TIME_ROLE ( 'creation_date' ) ;
#84 =( NAMED_UNIT ( * ) SI_UNIT ( $, .STERADIAN. ) SOLID_ANGLE_UNIT ( ) );
#85 = ORIENTED_EDGE ( 'NONE', *, *, #16, .T. ) ;
#86 = CC_DESIGN_PERSON_AND_ORGANIZATION_ASSIGNMENT ( #140, #191, ( #91 ) ) ;
#87 = EDGE_LOOP ( 'NONE', ( #85 ) ) ;
#88 = FACE_OUTER_BOUND ( 'NONE', #55, .T. ) ;
#89 = CIRCLE ( 'NONE', #174, 0.7500000000000001110 ) ;
#90 = ORIENTED_EDGE ( 'NONE', *, *, #39, .F. ) ;
#91 = PRODUCT_DEFINITION ( 'UNKNOWN', '', #190, #38 ) ;
#92 = CARTESIAN_POINT ( 'NONE',  ( 1.028061922334344963E-15, -3.605955811664716495E-17, 0.2944486372867118340 ) ) ;
#93 = FACE_OUTER_BOUND ( 'NONE', #176, .T. ) ;
#94 = FACE_OUTER_BOUND ( 'NONE', #195, .T. ) ;
#95 = CC_DESIGN_DATE_AND_TIME_ASSIGNMENT ( #35, #83, ( #91 ) ) ;
#96 = FACE_OUTER_BOUND ( 'NONE', #57, .T. ) ;
#97 = DIRECTION ( 'NONE',  ( -3.491481338843133355E-15, 1.224646799147353207E-16, -1.000000000000000000 ) ) ;
#98 = APPROVAL_STATUS ( 'not_yet_approved' ) ;
#99 = ADVANCED_FACE ( 'NONE', ( #94 ), #185, .F. ) ;
#100 = APPROVAL_ROLE ( '' ) ;
#101 =( NAMED_UNIT ( * ) PLANE_ANGLE_UNIT ( ) SI_UNIT ( $, .RADIAN. ) );
#102 = PERSON_AND_ORGANIZATION_ROLE ( 'creator' ) ;
#103 = APPROVAL ( #51, 'UNSPECIFIED' ) ;
#104 = APPROVAL_DATE_TIME ( #80, #62 ) ;
#105 = ORGANIZATION ( 'UNSPECIFIED', 'UNSPECIFIED', '' ) ;
#106 = EDGE_LOOP ( 'NONE', ( #210 ) ) ;
#107 = DIRECTION ( 'NONE',  ( 0.0000000000000000000, 1.000000000000000000, 0.0000000000000000000 ) ) ;
#108 = EDGE_LOOP ( 'NONE', ( #196 ) ) ;
#109 = APPROVAL_PERSON_ORGANIZATION ( #81, #103, #100 ) ;
#110 = ORIENTED_EDGE ( 'NONE', *, *, #181, .T. ) ;
#111 = CC_DESIGN_PERSON_AND_ORGANIZATION_ASSIGNMENT ( #21, #193, ( #34 ) ) ;
#112 = DIRECTION ( 'NONE',  ( 4.275831445896958607E-31, 1.000000000000000000, 1.224646799147353207E-16 ) ) ;
#113 = PERSON ( 'UNSPECIFIED', 'UNSPECIFIED', 'UNSPECIFIED', ('UNSPECIFIED'), ('UNSPECIFIED'), ('UNSPECIFIED') ) ;
#114 = DIRECTION ( 'NONE',  ( -3.491481338843133355E-15, 1.224646799147353207E-16, -1.000000000000000000 ) ) ;
#115 = VERTEX_POINT ( 'NONE', #134 ) ;
#116 = FACE_OUTER_BOUND ( 'NONE', #87, .T. ) ;
#117 = VERTEX_POINT ( 'NONE', #46 ) ;
#118 = AXIS2_PLACEMENT_3D ( 'NONE', #37, #178, #107 ) ;
#119 = DIRECTION ( 'NONE',  ( 0.0000000000000000000, 0.0000000000000000000, 1.000000000000000000 ) ) ;
#120 = DIRECTION ( 'NONE',  ( 1.000000000000000000, 0.0000000000000000000, 0.0000000000000000000 ) ) ;
#121 = PRODUCT_DEFINITION_SHAPE ( 'NONE', 'NONE',  #91 ) ;
#122 = APPROVAL_ROLE ( '' ) ;
#123 = CC_DESIGN_DATE_AND_TIME_ASSIGNMENT ( #65, #206, ( #154 ) ) ;
#124 = AXIS2_PLACEMENT_3D ( 'NONE', #6, #78, #27 ) ;
#125 =( GEOMETRIC_REPRESENTATION_CONTEXT ( 3 ) GLOBAL_UNCERTAINTY_ASSIGNED_CONTEXT ( ( #22 ) ) GLOBAL_UNIT_ASSIGNED_CONTEXT ( ( #29, #101, #84 ) ) REPRESENTATION_CONTEXT ( 'NONE', 'WORKASPACE' ) );
#126 = EDGE_LOOP ( 'NONE', ( #147 ) ) ;
#127 = AXIS2_PLACEMENT_3D ( 'NONE', #12, #97, #150 ) ;
#128 = DIRECTION ( 'NONE',  ( -3.491481338843133355E-15, 1.224646799147353207E-16, -1.000000000000000000 ) ) ;
#129 = ADVANCED_FACE ( 'NONE', ( #79, #116 ), #77, .T. ) ;
#130 = CARTESIAN_POINT ( 'NONE',  ( 3.287471358700138965E-14, 0.7499999999999963363, 9.415692193816532551 ) ) ;
#131 = ADVANCED_FACE ( 'NONE', ( #42, #152 ), #68, .T. ) ;
#132 = CARTESIAN_POINT ( 'NONE',  ( 3.287471358700138965E-14, -1.153089730691413526E-15, 9.415692193816532551 ) ) ;
#133 = DIRECTION ( 'NONE',  ( 4.275831445896959482E-31, 1.000000000000000000, 1.224646799147353454E-16 ) ) ;
#134 = CARTESIAN_POINT ( 'NONE',  ( 1.028061922334345160E-15, 0.5099999999999988987, 0.2944486372867118895 ) ) ;
#135 = DIRECTION ( 'NONE',  ( 0.0000000000000000000, 1.000000000000000000, 0.0000000000000000000 ) ) ;
#136 = CIRCLE ( 'NONE', #180, 0.5100000000000002309 ) ;
#137 = APPLICATION_PROTOCOL_DEFINITION ( 'international standard', 'config_control_design', 1994, #186 ) ;
#138 = SHAPE_DEFINITION_REPRESENTATION ( #121, #192 ) ;
#139 = ADVANCED_FACE ( 'NONE', ( #93 ), #203, .F. ) ;
#140 = PERSON_AND_ORGANIZATION ( #113, #105 ) ;
#141 = PERSON_AND_ORGANIZATION_ROLE ( 'classification_officer' ) ;
#142 = APPLICATION_CONTEXT ( 'configuration controlled 3d designs of mechanical parts and assemblies' ) ;
#143 = APPROVAL_DATE_TIME ( #70, #76 ) ;
#144 = DIRECTION ( 'NONE',  ( -3.491481338843133355E-15, 1.224646799147353207E-16, -1.000000000000000000 ) ) ;
#145 = CC_DESIGN_APPROVAL ( #62, ( #190 ) ) ;
#146 = ADVANCED_FACE ( 'NONE', ( #74, #15 ), #148, .T. ) ;
#147 = ORIENTED_EDGE ( 'NONE', *, *, #16, .F. ) ;
#148 = CYLINDRICAL_SURFACE ( 'NONE', #221, 0.5099999999999995648 ) ;
#149 = DIRECTION ( 'NONE',  ( -3.776333224288706011E-31, -1.000000000000000000, -1.062943306358340005E-16 ) ) ;
#150 = DIRECTION ( 'NONE',  ( 3.776333224288706011E-31, 1.000000000000000000, 1.062943306358340005E-16 ) ) ;
#151 = ADVANCED_FACE ( 'NONE', ( #96 ), #182, .T. ) ;
#152 = FACE_BOUND ( 'NONE', #40, .T. ) ;
#153 = PERSON_AND_ORGANIZATION ( #113, #105 ) ;
#154 = SECURITY_CLASSIFICATION ( '', '', #188 ) ;
#155 = APPROVAL_STATUS ( 'not_yet_approved' ) ;
#156 = CALENDAR_DATE ( 2021, 8, 10 ) ;
#157 = PERSON_AND_ORGANIZATION ( #113, #105 ) ;
#158 = CLOSED_SHELL ( 'NONE', ( #99, #129, #48, #131, #139 ) ) ;
#159 = EDGE_LOOP ( 'NONE', ( #4 ) ) ;
#160 = CYLINDRICAL_SURFACE ( 'NONE', #124, 0.7499999999999987788 ) ;
#161 = AXIS2_PLACEMENT_3D ( 'NONE', #189, #119, #120 ) ;
#162 = CC_DESIGN_PERSON_AND_ORGANIZATION_ASSIGNMENT ( #153, #219, ( #190 ) ) ;
#163 = DIRECTION ( 'NONE',  ( 0.0000000000000000000, 1.000000000000000000, 0.0000000000000000000 ) ) ;
#164 = ORIENTED_EDGE ( 'NONE', *, *, #220, .F. ) ;
#165 = DIRECTION ( 'NONE',  ( -3.491481338843133355E-15, 1.224646799147353207E-16, -1.000000000000000000 ) ) ;
#166 = DIRECTION ( 'NONE',  ( 0.0000000000000000000, -1.000000000000000000, 0.0000000000000000000 ) ) ;
#167 = DIRECTION ( 'NONE',  ( 3.491481338843133355E-15, -1.224646799147353207E-16, 1.000000000000000000 ) ) ;
#168 = VERTEX_POINT ( 'NONE', #214 ) ;
#169 = AXIS2_PLACEMENT_3D ( 'NONE', #75, #30, #112 ) ;
#170 = FACE_OUTER_BOUND ( 'NONE', #108, .T. ) ;
#171 = COORDINATED_UNIVERSAL_TIME_OFFSET ( 1, 0, .AHEAD. ) ;
#172 = COORDINATED_UNIVERSAL_TIME_OFFSET ( 1, 0, .AHEAD. ) ;
#173 = ADVANCED_FACE ( 'NONE', ( #170 ), #43, .T. ) ;
#174 = AXIS2_PLACEMENT_3D ( 'NONE', #213, #165, #47 ) ;
#175 = PERSON_AND_ORGANIZATION ( #113, #105 ) ;
#176 = EDGE_LOOP ( 'NONE', ( #90 ) ) ;
#177 = EDGE_CURVE ( 'NONE', #200, #200, #136, .T. ) ;
#178 = DIRECTION ( 'NONE',  ( -3.491481338843133355E-15, 1.224646799147353207E-16, -1.000000000000000000 ) ) ;
#179 = CIRCLE ( 'NONE', #201, 0.5100000000000002309 ) ;
#180 = AXIS2_PLACEMENT_3D ( 'NONE', #73, #59, #202 ) ;
#181 = EDGE_CURVE ( 'NONE', #184, #184, #89, .T. ) ;
#182 = PLANE ( 'NONE',  #205 ) ;
#183 = AXIS2_PLACEMENT_3D ( 'NONE', #92, #61, #149 ) ;
#184 = VERTEX_POINT ( 'NONE', #216 ) ;
#185 = PLANE ( 'NONE',  #7 ) ;
#186 = APPLICATION_CONTEXT ( 'configuration controlled 3d designs of mechanical parts and assemblies' ) ;
#187 = COORDINATED_UNIVERSAL_TIME_OFFSET ( 1, 0, .AHEAD. ) ;
#188 = SECURITY_CLASSIFICATION_LEVEL ( 'unclassified' ) ;
#189 = CARTESIAN_POINT ( 'NONE',  ( 0.0000000000000000000, 0.0000000000000000000, 0.0000000000000000000 ) ) ;
#190 = PRODUCT_DEFINITION_FORMATION_WITH_SPECIFIED_SOURCE ( 'ANY', '', #34, .NOT_KNOWN. ) ;
#191 = PERSON_AND_ORGANIZATION_ROLE ( 'creator' ) ;
#192 = ADVANCED_BREP_SHAPE_REPRESENTATION ( '58334', ( #69, #217, #161 ), #125 ) ;
#193 = PERSON_AND_ORGANIZATION_ROLE ( 'design_owner' ) ;
#194 = FACE_OUTER_BOUND ( 'NONE', #126, .T. ) ;
#195 = EDGE_LOOP ( 'NONE', ( #41 ) ) ;
#196 = ORIENTED_EDGE ( 'NONE', *, *, #220, .T. ) ;
#197 = CC_DESIGN_SECURITY_CLASSIFICATION ( #154, ( #190 ) ) ;
#198 = ORIENTED_EDGE ( 'NONE', *, *, #11, .F. ) ;
#199 = DIRECTION ( 'NONE',  ( 3.491481338843133355E-15, -1.224646799147353207E-16, 1.000000000000000000 ) ) ;
#200 = VERTEX_POINT ( 'NONE', #58 ) ;
#201 = AXIS2_PLACEMENT_3D ( 'NONE', #24, #128, #71 ) ;
#202 = DIRECTION ( 'NONE',  ( 0.0000000000000000000, 1.000000000000000000, 0.0000000000000000000 ) ) ;
#203 = PLANE ( 'NONE',  #169 ) ;
#204 = DIRECTION ( 'NONE',  ( -3.491481338843133355E-15, 1.224646799147353207E-16, -1.000000000000000000 ) ) ;
#205 = AXIS2_PLACEMENT_3D ( 'NONE', #63, #44, #13 ) ;
#206 = DATE_TIME_ROLE ( 'classification_date' ) ;
#207 = AXIS2_PLACEMENT_3D ( 'NONE', #64, #204, #135 ) ;
#208 = COORDINATED_UNIVERSAL_TIME_OFFSET ( 1, 0, .AHEAD. ) ;
#209 = CLOSED_SHELL ( 'NONE', ( #173, #146, #151 ) ) ;
#210 = ORIENTED_EDGE ( 'NONE', *, *, #181, .F. ) ;
#211 = ORIENTED_EDGE ( 'NONE', *, *, #177, .F. ) ;
#212 = ORIENTED_EDGE ( 'NONE', *, *, #39, .T. ) ;
#213 = CARTESIAN_POINT ( 'NONE',  ( 1.040461438975253740E-13, -3.649447461459112464E-15, 29.80000000000000071 ) ) ;
#214 = CARTESIAN_POINT ( 'NONE',  ( 1.047444401652940007E-13, 0.5499999999999963807, 30.00000000000000000 ) ) ;
#215 = AXIS2_PLACEMENT_3D ( 'NONE', #23, #144, #163 ) ;
#216 = CARTESIAN_POINT ( 'NONE',  ( 1.040461438975253740E-13, 0.7499999999999964473, 29.80000000000000071 ) ) ;
#217 = MANIFOLD_SOLID_BREP ( 'Corps-Déplacer/Copier1[2]', #209 ) ;
#218 = DIRECTION ( 'NONE',  ( -4.275831445896958607E-31, -1.000000000000000000, -1.224646799147353207E-16 ) ) ;
#219 = PERSON_AND_ORGANIZATION_ROLE ( 'design_supplier' ) ;
#220 = EDGE_CURVE ( 'NONE', #115, #115, #31, .T. ) ;
#221 = AXIS2_PLACEMENT_3D ( 'NONE', #26, #114, #133 ) ;
#222 = DATE_AND_TIME ( #18, #45 ) ;
#223 = CC_DESIGN_PERSON_AND_ORGANIZATION_ASSIGNMENT ( #67, #102, ( #190 ) ) ;
ENDSEC;
END-ISO-10303-21;
