ISO-10303-21;
HEADER;
FILE_DESCRIPTION (( 'STEP AP203' ),
    '1' );
FILE_NAME ('58333.step',
    '2021-10-08T05:54:05',
    ( '' ),
    ( '' ),
    'SwSTEP 2.0',
    'SolidWorks 2019',
    '' );
FILE_SCHEMA (( 'CONFIG_CONTROL_DESIGN' ));
ENDSEC;

DATA;
#1 = FACE_OUTER_BOUND ( 'NONE', #207, .T. ) ;
#2 = ADVANCED_FACE ( 'NONE', ( #120, #1 ), #167, .T. ) ;
#3 = DIRECTION ( 'NONE',  ( -3.491481338843133355E-15, 1.224646799147353207E-16, -1.000000000000000000 ) ) ;
#4 = UNCERTAINTY_MEASURE_WITH_UNIT (LENGTH_MEASURE( 1.000000000000000082E-05 ), #78, 'distance_accuracy_value', 'NONE');
#5 = CARTESIAN_POINT ( 'NONE',  ( 3.588240108004011600E-14, 0.7499999999999963363, 10.27712812921101992 ) ) ;
#6 = CIRCLE ( 'NONE', #62, 0.5899999999999997469 ) ;
#7 =( GEOMETRIC_REPRESENTATION_CONTEXT ( 3 ) GLOBAL_UNCERTAINTY_ASSIGNED_CONTEXT ( ( #4 ) ) GLOBAL_UNIT_ASSIGNED_CONTEXT ( ( #78, #144, #198 ) ) REPRESENTATION_CONTEXT ( 'NONE', 'WORKASPACE' ) );
#8 = COORDINATED_UNIVERSAL_TIME_OFFSET ( 1, 0, .AHEAD. ) ;
#9 = CARTESIAN_POINT ( 'NONE',  ( 1.047444401652940007E-13, -3.673940397442059178E-15, 30.00000000000000000 ) ) ;
#10 = EDGE_CURVE ( 'NONE', #96, #96, #158, .T. ) ;
#11 = DATE_AND_TIME ( #180, #179 ) ;
#12 = CC_DESIGN_PERSON_AND_ORGANIZATION_ASSIGNMENT ( #44, #130, ( #14 ) ) ;
#13 = AXIS2_PLACEMENT_3D ( 'NONE', #213, #122, #105 ) ;
#14 = PRODUCT_DEFINITION_FORMATION_WITH_SPECIFIED_SOURCE ( 'ANY', '', #85, .NOT_KNOWN. ) ;
#15 = EDGE_CURVE ( 'NONE', #108, #108, #6, .T. ) ;
#16 = DIRECTION ( 'NONE',  ( 3.264288041334306272E-31, 1.000000000000000000, 9.188154004114467483E-17 ) ) ;
#17 = FACE_OUTER_BOUND ( 'NONE', #164, .T. ) ;
#18 = AXIS2_PLACEMENT_3D ( 'NONE', #127, #110, #176 ) ;
#19 = CARTESIAN_POINT ( 'NONE',  ( 3.491481338843133986E-14, -2.080180638672242935E-31, 10.00000000000000178 ) ) ;
#20 = DIRECTION ( 'NONE',  ( 4.275831445896958607E-31, 1.000000000000000000, 1.224646799147353207E-16 ) ) ;
#21 = EDGE_LOOP ( 'NONE', ( #66 ) ) ;
#22 = PERSON_AND_ORGANIZATION_ROLE ( 'creator' ) ;
#23 = APPROVAL_ROLE ( '' ) ;
#24 = COORDINATED_UNIVERSAL_TIME_OFFSET ( 1, 0, .AHEAD. ) ;
#25 = PERSON_AND_ORGANIZATION ( #129, #32 ) ;
#26 = APPLICATION_PROTOCOL_DEFINITION ( 'international standard', 'config_control_design', 1994, #74 ) ;
#27 = CC_DESIGN_PERSON_AND_ORGANIZATION_ASSIGNMENT ( #25, #57, ( #85 ) ) ;
#28 = PERSON_AND_ORGANIZATION ( #129, #32 ) ;
#29 = PERSON_AND_ORGANIZATION_ROLE ( 'design_supplier' ) ;
#30 = DIRECTION ( 'NONE',  ( 3.491481338843133355E-15, -1.224646799147353207E-16, 1.000000000000000000 ) ) ;
#31 = DIRECTION ( 'NONE',  ( 3.491481338843133355E-15, -1.224646799147353207E-16, 1.000000000000000000 ) ) ;
#32 = ORGANIZATION ( 'UNSPECIFIED', 'UNSPECIFIED', '' ) ;
#33 = DIRECTION ( 'NONE',  ( -4.275831445896958607E-31, -1.000000000000000000, -1.224646799147353207E-16 ) ) ;
#34 = ORIENTED_EDGE ( 'NONE', *, *, #100, .F. ) ;
#35 = EDGE_LOOP ( 'NONE', ( #45 ) ) ;
#36 = DIRECTION ( 'NONE',  ( 0.0000000000000000000, 1.000000000000000000, 0.0000000000000000000 ) ) ;
#37 = DIRECTION ( 'NONE',  ( -3.491481338843133355E-15, 1.224646799147353207E-16, -1.000000000000000000 ) ) ;
#38 = APPROVAL_ROLE ( '' ) ;
#39 = APPROVAL ( #132, 'UNSPECIFIED' ) ;
#40 = PERSON_AND_ORGANIZATION ( #129, #32 ) ;
#41 = EDGE_LOOP ( 'NONE', ( #204 ) ) ;
#42 = ADVANCED_FACE ( 'NONE', ( #17 ), #92, .F. ) ;
#43 = LOCAL_TIME ( 7, 54, 5.000000000000000000, #172 ) ;
#44 = PERSON_AND_ORGANIZATION ( #129, #32 ) ;
#45 = ORIENTED_EDGE ( 'NONE', *, *, #80, .F. ) ;
#46 = CC_DESIGN_APPROVAL ( #193, ( #103 ) ) ;
#47 = FACE_BOUND ( 'NONE', #139, .T. ) ;
#48 = DIRECTION ( 'NONE',  ( 4.275831445896958607E-31, 1.000000000000000000, 1.224646799147353207E-16 ) ) ;
#49 = CC_DESIGN_PERSON_AND_ORGANIZATION_ASSIGNMENT ( #171, #22, ( #103 ) ) ;
#50 = CARTESIAN_POINT ( 'NONE',  ( 1.047444401652940007E-13, 4.124339402320052999E-33, 30.00000000000000000 ) ) ;
#51 = DIRECTION ( 'NONE',  ( -3.491481338843133355E-15, 1.224646799147353207E-16, -1.000000000000000000 ) ) ;
#52 = ADVANCED_FACE ( 'NONE', ( #104 ), #154, .F. ) ;
#53 = DIRECTION ( 'NONE',  ( -3.264288041334306272E-31, -1.000000000000000000, -9.188154004114467483E-17 ) ) ;
#54 = PERSON_AND_ORGANIZATION ( #129, #32 ) ;
#55 = LOCAL_TIME ( 7, 54, 5.000000000000000000, #24 ) ;
#56 = CARTESIAN_POINT ( 'NONE',  ( 1.189326537602476949E-15, 0.5899999999999985256, 0.3406366588218822655 ) ) ;
#57 = PERSON_AND_ORGANIZATION_ROLE ( 'design_owner' ) ;
#58 = CARTESIAN_POINT ( 'NONE',  ( 3.588240108004011600E-14, -1.258585206786550136E-15, 10.27712812921101992 ) ) ;
#59 = AXIS2_PLACEMENT_3D ( 'NONE', #9, #37, #123 ) ;
#60 = DATE_TIME_ROLE ( 'classification_date' ) ;
#61 = EDGE_LOOP ( 'NONE', ( #34 ) ) ;
#62 = AXIS2_PLACEMENT_3D ( 'NONE', #121, #51, #168 ) ;
#63 = CIRCLE ( 'NONE', #76, 0.7500000000000001110 ) ;
#64 = CALENDAR_DATE ( 2021, 8, 10 ) ;
#65 = APPROVAL_DATE_TIME ( #202, #182 ) ;
#66 = ORIENTED_EDGE ( 'NONE', *, *, #84, .F. ) ;
#67 = AXIS2_PLACEMENT_3D ( 'NONE', #223, #119, #53 ) ;
#68 = ORIENTED_EDGE ( 'NONE', *, *, #10, .T. ) ;
#69 = CARTESIAN_POINT ( 'NONE',  ( 1.040461438975253740E-13, -3.649447461459112464E-15, 29.80000000000000071 ) ) ;
#70 = CARTESIAN_POINT ( 'NONE',  ( 3.588240108004011600E-14, -1.258585206786550136E-15, 10.27712812921101992 ) ) ;
#71 = MANIFOLD_SOLID_BREP ( 'Corps-Déplacer/Copier1[1]', #128 ) ;
#72 = DIRECTION ( 'NONE',  ( -3.491481338843133355E-15, 1.224646799147353207E-16, -1.000000000000000000 ) ) ;
#73 = DIRECTION ( 'NONE',  ( 0.0000000000000000000, 1.000000000000000000, 0.0000000000000000000 ) ) ;
#74 = APPLICATION_CONTEXT ( 'configuration controlled 3d designs of mechanical parts and assemblies' ) ;
#75 = DIRECTION ( 'NONE',  ( -3.491481338843133355E-15, 1.224646799147353207E-16, -1.000000000000000000 ) ) ;
#76 = AXIS2_PLACEMENT_3D ( 'NONE', #69, #3, #73 ) ;
#77 = CALENDAR_DATE ( 2021, 8, 10 ) ;
#78 =( LENGTH_UNIT ( ) NAMED_UNIT ( * ) SI_UNIT ( .MILLI., .METRE. ) );
#79 = CARTESIAN_POINT ( 'NONE',  ( 3.491481338843133986E-14, 0.5899999999999985256, 10.00000000000000178 ) ) ;
#80 = EDGE_CURVE ( 'NONE', #156, #156, #87, .T. ) ;
#81 = APPROVAL_DATE_TIME ( #11, #39 ) ;
#82 = EDGE_LOOP ( 'NONE', ( #88 ) ) ;
#83 = CONICAL_SURFACE ( 'NONE', #67, 0.5899999999999985256, 1.047197551196592746 ) ;
#84 = EDGE_CURVE ( 'NONE', #214, #214, #63, .T. ) ;
#85 = PRODUCT ( '58333', '58333', '', ( #142 ) ) ;
#86 = CARTESIAN_POINT ( 'NONE',  ( 1.047444401652940007E-13, -3.673940397442059178E-15, 30.00000000000000000 ) ) ;
#87 = CIRCLE ( 'NONE', #153, 0.5500000000000000444 ) ;
#88 = ORIENTED_EDGE ( 'NONE', *, *, #100, .T. ) ;
#89 = FACE_OUTER_BOUND ( 'NONE', #41, .T. ) ;
#90 = DIRECTION ( 'NONE',  ( 4.275831445896959482E-31, 1.000000000000000000, 1.224646799147353207E-16 ) ) ;
#91 = CLOSED_SHELL ( 'NONE', ( #94, #2, #136 ) ) ;
#92 = PLANE ( 'NONE',  #188 ) ;
#93 = AXIS2_PLACEMENT_3D ( 'NONE', #50, #133, #48 ) ;
#94 = ADVANCED_FACE ( 'NONE', ( #148 ), #83, .T. ) ;
#95 = DATE_TIME_ROLE ( 'creation_date' ) ;
#96 = VERTEX_POINT ( 'NONE', #161 ) ;
#97 = DATE_AND_TIME ( #125, #55 ) ;
#98 = CC_DESIGN_APPROVAL ( #39, ( #113 ) ) ;
#99 = FACE_BOUND ( 'NONE', #102, .T. ) ;
#100 = EDGE_CURVE ( 'NONE', #126, #126, #217, .T. ) ;
#101 = LOCAL_TIME ( 7, 54, 5.000000000000000000, #115 ) ;
#102 = EDGE_LOOP ( 'NONE', ( #216 ) ) ;
#103 = PRODUCT_DEFINITION ( 'UNKNOWN', '', #14, #143 ) ;
#104 = FACE_OUTER_BOUND ( 'NONE', #35, .T. ) ;
#105 = DIRECTION ( 'NONE',  ( 0.0000000000000000000, 1.000000000000000000, 0.0000000000000000000 ) ) ;
#106 = DIRECTION ( 'NONE',  ( -3.491481338843133355E-15, 1.224646799147353207E-16, -1.000000000000000000 ) ) ;
#107 = DIRECTION ( 'NONE',  ( -3.491481338843133355E-15, 1.224646799147353207E-16, -1.000000000000000000 ) ) ;
#108 = VERTEX_POINT ( 'NONE', #79 ) ;
#109 = CC_DESIGN_DATE_AND_TIME_ASSIGNMENT ( #97, #95, ( #103 ) ) ;
#110 = DIRECTION ( 'NONE',  ( 0.0000000000000000000, 0.0000000000000000000, 1.000000000000000000 ) ) ;
#111 = APPROVAL_PERSON_ORGANIZATION ( #40, #193, #38 ) ;
#112 = AXIS2_PLACEMENT_3D ( 'NONE', #209, #31, #33 ) ;
#113 = SECURITY_CLASSIFICATION ( '', '', #205 ) ;
#114 = PERSON_AND_ORGANIZATION_ROLE ( 'classification_officer' ) ;
#115 = COORDINATED_UNIVERSAL_TIME_OFFSET ( 1, 0, .AHEAD. ) ;
#116 = PRODUCT_DEFINITION_SHAPE ( 'NONE', 'NONE',  #103 ) ;
#117 = CONICAL_SURFACE ( 'NONE', #59, 0.5500000000000000444, 0.7853981633974516097 ) ;
#118 = FACE_OUTER_BOUND ( 'NONE', #185, .T. ) ;
#119 = DIRECTION ( 'NONE',  ( 3.491481338843133355E-15, -1.224646799147353207E-16, 1.000000000000000000 ) ) ;
#120 = FACE_OUTER_BOUND ( 'NONE', #61, .T. ) ;
#121 = CARTESIAN_POINT ( 'NONE',  ( 3.491481338843133986E-14, -1.224646799147353454E-15, 10.00000000000000178 ) ) ;
#122 = DIRECTION ( 'NONE',  ( -3.491481338843133355E-15, 1.224646799147353207E-16, -1.000000000000000000 ) ) ;
#123 = DIRECTION ( 'NONE',  ( 0.0000000000000000000, 1.000000000000000000, 0.0000000000000000000 ) ) ;
#124 = ADVANCED_FACE ( 'NONE', ( #47, #118 ), #194, .T. ) ;
#125 = CALENDAR_DATE ( 2021, 8, 10 ) ;
#126 = VERTEX_POINT ( 'NONE', #56 ) ;
#127 = CARTESIAN_POINT ( 'NONE',  ( 0.0000000000000000000, 0.0000000000000000000, 0.0000000000000000000 ) ) ;
#128 = CLOSED_SHELL ( 'NONE', ( #42, #124, #166, #174, #52 ) ) ;
#129 = PERSON ( 'UNSPECIFIED', 'UNSPECIFIED', 'UNSPECIFIED', ('UNSPECIFIED'), ('UNSPECIFIED'), ('UNSPECIFIED') ) ;
#130 = PERSON_AND_ORGANIZATION_ROLE ( 'creator' ) ;
#131 = ORIENTED_EDGE ( 'NONE', *, *, #200, .F. ) ;
#132 = APPROVAL_STATUS ( 'not_yet_approved' ) ;
#133 = DIRECTION ( 'NONE',  ( -3.491481338843133355E-15, 1.224646799147353207E-16, -1.000000000000000000 ) ) ;
#134 = DIRECTION ( 'NONE',  ( 0.0000000000000000000, -1.000000000000000000, 0.0000000000000000000 ) ) ;
#135 = CYLINDRICAL_SURFACE ( 'NONE', #175, 0.7499999999999988898 ) ;
#136 = ADVANCED_FACE ( 'NONE', ( #208 ), #187, .T. ) ;
#137 = CC_DESIGN_SECURITY_CLASSIFICATION ( #113, ( #14 ) ) ;
#138 = DIRECTION ( 'NONE',  ( -4.275831445896958607E-31, -1.000000000000000000, -1.224646799147353207E-16 ) ) ;
#139 = EDGE_LOOP ( 'NONE', ( #201 ) ) ;
#140 = VERTEX_POINT ( 'NONE', #5 ) ;
#141 = CC_DESIGN_APPROVAL ( #182, ( #14 ) ) ;
#142 = MECHANICAL_CONTEXT ( 'NONE', #74, 'mechanical' ) ;
#143 = DESIGN_CONTEXT ( 'detailed design', #177, 'design' ) ;
#144 =( NAMED_UNIT ( * ) PLANE_ANGLE_UNIT ( ) SI_UNIT ( $, .RADIAN. ) );
#145 = MANIFOLD_SOLID_BREP ( 'Corps-Déplacer/Copier1[2]', #91 ) ;
#146 = APPROVAL_PERSON_ORGANIZATION ( #54, #182, #23 ) ;
#147 = COORDINATED_UNIVERSAL_TIME_OFFSET ( 1, 0, .AHEAD. ) ;
#148 = FACE_OUTER_BOUND ( 'NONE', #82, .T. ) ;
#149 = APPROVAL_PERSON_ORGANIZATION ( #165, #39, #219 ) ;
#150 = DIRECTION ( 'NONE',  ( 3.491481338843133355E-15, -1.224646799147353207E-16, 1.000000000000000000 ) ) ;
#151 = PRODUCT_RELATED_PRODUCT_CATEGORY ( 'detail', '', ( #85 ) ) ;
#152 = FACE_OUTER_BOUND ( 'NONE', #21, .T. ) ;
#153 = AXIS2_PLACEMENT_3D ( 'NONE', #86, #72, #212 ) ;
#154 = PLANE ( 'NONE',  #93 ) ;
#155 = CC_DESIGN_PERSON_AND_ORGANIZATION_ASSIGNMENT ( #28, #114, ( #113 ) ) ;
#156 = VERTEX_POINT ( 'NONE', #157 ) ;
#157 = CARTESIAN_POINT ( 'NONE',  ( 1.047444401652940007E-13, 0.5499999999999963807, 30.00000000000000000 ) ) ;
#158 = CIRCLE ( 'NONE', #13, 0.5899999999999997469 ) ;
#159 = AXIS2_PLACEMENT_3D ( 'NONE', #192, #221, #16 ) ;
#160 = APPROVAL_STATUS ( 'not_yet_approved' ) ;
#161 = CARTESIAN_POINT ( 'NONE',  ( 3.491481338843133986E-14, 0.5899999999999985256, 10.00000000000000178 ) ) ;
#162 = DATE_AND_TIME ( #173, #43 ) ;
#163 = DATE_AND_TIME ( #64, #101 ) ;
#164 = EDGE_LOOP ( 'NONE', ( #222 ) ) ;
#165 = PERSON_AND_ORGANIZATION ( #129, #32 ) ;
#166 = ADVANCED_FACE ( 'NONE', ( #169, #89 ), #135, .T. ) ;
#167 = CYLINDRICAL_SURFACE ( 'NONE', #210, 0.5899999999999991918 ) ;
#168 = DIRECTION ( 'NONE',  ( 0.0000000000000000000, 1.000000000000000000, 0.0000000000000000000 ) ) ;
#169 = FACE_OUTER_BOUND ( 'NONE', #170, .T. ) ;
#170 = EDGE_LOOP ( 'NONE', ( #131 ) ) ;
#171 = PERSON_AND_ORGANIZATION ( #129, #32 ) ;
#172 = COORDINATED_UNIVERSAL_TIME_OFFSET ( 1, 0, .AHEAD. ) ;
#173 = CALENDAR_DATE ( 2021, 8, 10 ) ;
#174 = ADVANCED_FACE ( 'NONE', ( #152, #99 ), #117, .T. ) ;
#175 = AXIS2_PLACEMENT_3D ( 'NONE', #190, #106, #90 ) ;
#176 = DIRECTION ( 'NONE',  ( 1.000000000000000000, 0.0000000000000000000, 0.0000000000000000000 ) ) ;
#177 = APPLICATION_CONTEXT ( 'configuration controlled 3d designs of mechanical parts and assemblies' ) ;
#178 = CC_DESIGN_DATE_AND_TIME_ASSIGNMENT ( #163, #60, ( #113 ) ) ;
#179 = LOCAL_TIME ( 7, 54, 5.000000000000000000, #147 ) ;
#180 = CALENDAR_DATE ( 2021, 8, 10 ) ;
#181 = SHAPE_DEFINITION_REPRESENTATION ( #116, #196 ) ;
#182 = APPROVAL ( #160, 'UNSPECIFIED' ) ;
#183 = CIRCLE ( 'NONE', #211, 0.7499999999999976685 ) ;
#184 = ORIENTED_EDGE ( 'NONE', *, *, #10, .F. ) ;
#185 = EDGE_LOOP ( 'NONE', ( #206 ) ) ;
#186 = CC_DESIGN_PERSON_AND_ORGANIZATION_ASSIGNMENT ( #220, #29, ( #14 ) ) ;
#187 = PLANE ( 'NONE',  #112 ) ;
#188 = AXIS2_PLACEMENT_3D ( 'NONE', #19, #150, #138 ) ;
#189 = LOCAL_TIME ( 7, 54, 5.000000000000000000, #8 ) ;
#190 = CARTESIAN_POINT ( 'NONE',  ( 0.0000000000000000000, 0.0000000000000000000, 0.0000000000000000000 ) ) ;
#191 = CARTESIAN_POINT ( 'NONE',  ( 0.0000000000000000000, 0.0000000000000000000, 0.0000000000000000000 ) ) ;
#192 = CARTESIAN_POINT ( 'NONE',  ( 1.189326537602476752E-15, -4.171595938984670440E-17, 0.3406366588218822100 ) ) ;
#193 = APPROVAL ( #195, 'UNSPECIFIED' ) ;
#194 = CONICAL_SURFACE ( 'NONE', #203, 0.7499999999999976685, 0.5235987755982963732 ) ;
#195 = APPROVAL_STATUS ( 'not_yet_approved' ) ;
#196 = ADVANCED_BREP_SHAPE_REPRESENTATION ( '58333', ( #71, #145, #18 ), #7 ) ;
#197 = CARTESIAN_POINT ( 'NONE',  ( 1.040461438975253740E-13, 0.7499999999999964473, 29.80000000000000071 ) ) ;
#198 =( NAMED_UNIT ( * ) SI_UNIT ( $, .STERADIAN. ) SOLID_ANGLE_UNIT ( ) );
#199 = APPROVAL_DATE_TIME ( #162, #193 ) ;
#200 = EDGE_CURVE ( 'NONE', #140, #140, #183, .T. ) ;
#201 = ORIENTED_EDGE ( 'NONE', *, *, #15, .F. ) ;
#202 = DATE_AND_TIME ( #77, #189 ) ;
#203 = AXIS2_PLACEMENT_3D ( 'NONE', #70, #30, #134 ) ;
#204 = ORIENTED_EDGE ( 'NONE', *, *, #84, .T. ) ;
#205 = SECURITY_CLASSIFICATION_LEVEL ( 'unclassified' ) ;
#206 = ORIENTED_EDGE ( 'NONE', *, *, #200, .T. ) ;
#207 = EDGE_LOOP ( 'NONE', ( #68 ) ) ;
#208 = FACE_OUTER_BOUND ( 'NONE', #218, .T. ) ;
#209 = CARTESIAN_POINT ( 'NONE',  ( 3.491481338843133986E-14, -2.080180638672242935E-31, 10.00000000000000178 ) ) ;
#210 = AXIS2_PLACEMENT_3D ( 'NONE', #191, #107, #20 ) ;
#211 = AXIS2_PLACEMENT_3D ( 'NONE', #58, #75, #36 ) ;
#212 = DIRECTION ( 'NONE',  ( 0.0000000000000000000, 1.000000000000000000, 0.0000000000000000000 ) ) ;
#213 = CARTESIAN_POINT ( 'NONE',  ( 3.491481338843133986E-14, -1.224646799147353454E-15, 10.00000000000000178 ) ) ;
#214 = VERTEX_POINT ( 'NONE', #197 ) ;
#215 = APPLICATION_PROTOCOL_DEFINITION ( 'international standard', 'config_control_design', 1994, #177 ) ;
#216 = ORIENTED_EDGE ( 'NONE', *, *, #80, .T. ) ;
#217 = CIRCLE ( 'NONE', #159, 0.5899999999999985256 ) ;
#218 = EDGE_LOOP ( 'NONE', ( #184 ) ) ;
#219 = APPROVAL_ROLE ( '' ) ;
#220 = PERSON_AND_ORGANIZATION ( #129, #32 ) ;
#221 = DIRECTION ( 'NONE',  ( -3.491481338843133355E-15, 1.224646799147353207E-16, -1.000000000000000000 ) ) ;
#222 = ORIENTED_EDGE ( 'NONE', *, *, #15, .T. ) ;
#223 = CARTESIAN_POINT ( 'NONE',  ( 1.189326537602476752E-15, -4.171595938984670440E-17, 0.3406366588218822100 ) ) ;
ENDSEC;
END-ISO-10303-21;
