ISO-10303-21;
HEADER;
FILE_DESCRIPTION (( 'STEP AP203' ),
    '1' );
FILE_NAME ('58199.step',
    '2021-10-08T05:16:02',
    ( '' ),
    ( '' ),
    'SwSTEP 2.0',
    'SolidWorks 2019',
    '' );
FILE_SCHEMA (( 'CONFIG_CONTROL_DESIGN' ));
ENDSEC;

DATA;
#1 = PERSON_AND_ORGANIZATION ( #99, #159 ) ;
#2 = MECHANICAL_CONTEXT ( 'NONE', #157, 'mechanical' ) ;
#3 = LOCAL_TIME ( 7, 16, 2.000000000000000000, #59 ) ;
#4 = APPROVAL_STATUS ( 'not_yet_approved' ) ;
#5 = ADVANCED_FACE ( 'NONE', ( #48, #7 ), #131, .T. ) ;
#6 = DIRECTION ( 'NONE',  ( -3.491481338843133355E-15, 1.224646799147353207E-16, -1.000000000000000000 ) ) ;
#7 = FACE_OUTER_BOUND ( 'NONE', #25, .T. ) ;
#8 = CC_DESIGN_PERSON_AND_ORGANIZATION_ASSIGNMENT ( #191, #107, ( #51 ) ) ;
#9 = MANIFOLD_SOLID_BREP ( 'Corps-Déplacer/Copier1[1]', #76 ) ;
#10 = ORIENTED_EDGE ( 'NONE', *, *, #42, .F. ) ;
#11 = MANIFOLD_SOLID_BREP ( 'Corps-Déplacer/Copier1[2]', #133 ) ;
#12 = EDGE_LOOP ( 'NONE', ( #46 ) ) ;
#13 = PLANE ( 'NONE',  #219 ) ;
#14 = EDGE_CURVE ( 'NONE', #32, #32, #80, .T. ) ;
#15 = VERTEX_POINT ( 'NONE', #16 ) ;
#16 = CARTESIAN_POINT ( 'NONE',  ( 4.189777606611760026E-14, 0.8949999999999930234, 12.00000000000000000 ) ) ;
#17 = FACE_BOUND ( 'NONE', #92, .T. ) ;
#18 = APPROVAL_STATUS ( 'not_yet_approved' ) ;
#19 = AXIS2_PLACEMENT_3D ( 'NONE', #208, #130, #196 ) ;
#20 = PERSON_AND_ORGANIZATION_ROLE ( 'design_supplier' ) ;
#21 = APPROVAL_ROLE ( '' ) ;
#22 = DATE_AND_TIME ( #171, #134 ) ;
#23 = ORIENTED_EDGE ( 'NONE', *, *, #42, .T. ) ;
#24 = EDGE_LOOP ( 'NONE', ( #132 ) ) ;
#25 = EDGE_LOOP ( 'NONE', ( #211 ) ) ;
#26 = CONICAL_SURFACE ( 'NONE', #95, 0.7999999999999996003, 0.7853981633974507215 ) ;
#27 = EDGE_LOOP ( 'NONE', ( #23 ) ) ;
#28 = ORIENTED_EDGE ( 'NONE', *, *, #187, .T. ) ;
#29 = APPLICATION_CONTEXT ( 'configuration controlled 3d designs of mechanical parts and assemblies' ) ;
#30 = DIRECTION ( 'NONE',  ( 4.275831445896958607E-31, 1.000000000000000000, 1.224646799147353207E-16 ) ) ;
#31 = FACE_OUTER_BOUND ( 'NONE', #94, .T. ) ;
#32 = VERTEX_POINT ( 'NONE', #35 ) ;
#33 = CARTESIAN_POINT ( 'NONE',  ( 0.0000000000000000000, 0.0000000000000000000, 0.0000000000000000000 ) ) ;
#34 = ADVANCED_FACE ( 'NONE', ( #195, #97 ), #121, .T. ) ;
#35 = CARTESIAN_POINT ( 'NONE',  ( 4.189777606611760026E-14, 0.8949999999999930234, 12.00000000000000000 ) ) ;
#36 = CIRCLE ( 'NONE', #215, 0.7999999999999996003 ) ;
#37 = CC_DESIGN_SECURITY_CLASSIFICATION ( #125, ( #51 ) ) ;
#38 = DATE_TIME_ROLE ( 'classification_date' ) ;
#39 = ADVANCED_FACE ( 'NONE', ( #148 ), #193, .T. ) ;
#40 = PRODUCT ( '58199', '58199', '', ( #2 ) ) ;
#41 = DIRECTION ( 'NONE',  ( 0.0000000000000000000, 0.0000000000000000000, 1.000000000000000000 ) ) ;
#42 = EDGE_CURVE ( 'NONE', #153, #153, #91, .T. ) ;
#43 = AXIS2_PLACEMENT_3D ( 'NONE', #45, #44, #113 ) ;
#44 = DIRECTION ( 'NONE',  ( 3.491481338843133355E-15, -1.224646799147353207E-16, 1.000000000000000000 ) ) ;
#45 = CARTESIAN_POINT ( 'NONE',  ( 4.189777606611760026E-14, 6.711425027411749572E-33, 12.00000000000000000 ) ) ;
#46 = ORIENTED_EDGE ( 'NONE', *, *, #79, .F. ) ;
#47 = CIRCLE ( 'NONE', #166, 0.8949999999999935785 ) ;
#48 = FACE_OUTER_BOUND ( 'NONE', #213, .T. ) ;
#49 = DIRECTION ( 'NONE',  ( 0.0000000000000000000, 1.000000000000000000, 0.0000000000000000000 ) ) ;
#50 = CARTESIAN_POINT ( 'NONE',  ( 0.0000000000000000000, 0.0000000000000000000, 0.0000000000000000000 ) ) ;
#51 = PRODUCT_DEFINITION_FORMATION_WITH_SPECIFIED_SOURCE ( 'ANY', '', #40, .NOT_KNOWN. ) ;
#52 = CC_DESIGN_PERSON_AND_ORGANIZATION_ASSIGNMENT ( #1, #20, ( #51 ) ) ;
#53 =( NAMED_UNIT ( * ) SI_UNIT ( $, .STERADIAN. ) SOLID_ANGLE_UNIT ( ) );
#54 = DIRECTION ( 'NONE',  ( -3.491481338843133355E-15, 1.224646799147353207E-16, -1.000000000000000000 ) ) ;
#55 = FACE_OUTER_BOUND ( 'NONE', #61, .T. ) ;
#56 = PERSON_AND_ORGANIZATION ( #99, #159 ) ;
#57 = PERSON_AND_ORGANIZATION_ROLE ( 'creator' ) ;
#58 = APPROVAL_PERSON_ORGANIZATION ( #204, #198, #122 ) ;
#59 = COORDINATED_UNIVERSAL_TIME_OFFSET ( 1, 0, .AHEAD. ) ;
#60 = CARTESIAN_POINT ( 'NONE',  ( 4.253275548873588879E-14, -1.491848238990047904E-15, 12.18186533479473965 ) ) ;
#61 = EDGE_LOOP ( 'NONE', ( #10 ) ) ;
#62 = EDGE_LOOP ( 'NONE', ( #129 ) ) ;
#63 = PRODUCT_DEFINITION ( 'UNKNOWN', '', #51, #128 ) ;
#64 = DIRECTION ( 'NONE',  ( 0.0000000000000000000, 1.000000000000000000, 0.0000000000000000000 ) ) ;
#65 = DIRECTION ( 'NONE',  ( -3.491481338843133355E-15, 1.224646799147353207E-16, -1.000000000000000000 ) ) ;
#66 = CONICAL_SURFACE ( 'NONE', #170, 0.8949999999999935785, 1.029744258676649871 ) ;
#67 = CARTESIAN_POINT ( 'NONE',  ( 1.319779946082704535E-13, 0.9999999999999947820, 37.79999999999999716 ) ) ;
#68 = DATE_AND_TIME ( #142, #86 ) ;
#69 = APPROVAL ( #4, 'UNSPECIFIED' ) ;
#70 = DATE_TIME_ROLE ( 'creation_date' ) ;
#71 = ADVANCED_FACE ( 'NONE', ( #98 ), #66, .T. ) ;
#72 = AXIS2_PLACEMENT_3D ( 'NONE', #137, #138, #103 ) ;
#73 = PERSON_AND_ORGANIZATION_ROLE ( 'design_owner' ) ;
#74 = ORIENTED_EDGE ( 'NONE', *, *, #212, .T. ) ;
#75 = CARTESIAN_POINT ( 'NONE',  ( 1.877614806529518147E-15, -6.585786202740923559E-17, 0.5377702540296682709 ) ) ;
#76 = CLOSED_SHELL ( 'NONE', ( #192, #34, #102, #93, #112 ) ) ;
#77 = ORIENTED_EDGE ( 'NONE', *, *, #212, .F. ) ;
#78 = DIRECTION ( 'NONE',  ( 3.491481338843133355E-15, -1.224646799147353207E-16, 1.000000000000000000 ) ) ;
#79 = EDGE_CURVE ( 'NONE', #15, #15, #165, .T. ) ;
#80 = CIRCLE ( 'NONE', #19, 0.8949999999999945777 ) ;
#81 = LOCAL_TIME ( 7, 16, 2.000000000000000000, #156 ) ;
#82 = DIRECTION ( 'NONE',  ( 4.303754065669831570E-31, 1.000000000000000000, 1.211399075402806914E-16 ) ) ;
#83 = CARTESIAN_POINT ( 'NONE',  ( 1.877614806529518147E-15, -6.585786202740923559E-17, 0.5377702540296682709 ) ) ;
#84 = DIRECTION ( 'NONE',  ( 0.0000000000000000000, 1.000000000000000000, 0.0000000000000000000 ) ) ;
#85 = CARTESIAN_POINT ( 'NONE',  ( 1.877614806529518541E-15, 0.8949999999999934674, 0.5377702540296683820 ) ) ;
#86 = LOCAL_TIME ( 7, 16, 2.000000000000000000, #89 ) ;
#87 = CC_DESIGN_PERSON_AND_ORGANIZATION_ASSIGNMENT ( #155, #111, ( #125 ) ) ;
#88 = DATE_AND_TIME ( #173, #81 ) ;
#89 = COORDINATED_UNIVERSAL_TIME_OFFSET ( 1, 0, .AHEAD. ) ;
#90 = CC_DESIGN_DATE_AND_TIME_ASSIGNMENT ( #109, #70, ( #63 ) ) ;
#91 = CIRCLE ( 'NONE', #152, 0.9999999999999993339 ) ;
#92 = EDGE_LOOP ( 'NONE', ( #74 ) ) ;
#93 = ADVANCED_FACE ( 'NONE', ( #55, #17 ), #26, .T. ) ;
#94 = EDGE_LOOP ( 'NONE', ( #178 ) ) ;
#95 = AXIS2_PLACEMENT_3D ( 'NONE', #119, #202, #84 ) ;
#96 = UNCERTAINTY_MEASURE_WITH_UNIT (LENGTH_MEASURE( 1.000000000000000082E-05 ), #200, 'distance_accuracy_value', 'NONE');
#97 = FACE_OUTER_BOUND ( 'NONE', #116, .T. ) ;
#98 = FACE_OUTER_BOUND ( 'NONE', #62, .T. ) ;
#99 = PERSON ( 'UNSPECIFIED', 'UNSPECIFIED', 'UNSPECIFIED', ('UNSPECIFIED'), ('UNSPECIFIED'), ('UNSPECIFIED') ) ;
#100 = CARTESIAN_POINT ( 'NONE',  ( 4.189777606611760026E-14, -1.469576158976823947E-15, 12.00000000000000000 ) ) ;
#101 = FACE_OUTER_BOUND ( 'NONE', #24, .T. ) ;
#102 = ADVANCED_FACE ( 'NONE', ( #101, #162 ), #182, .T. ) ;
#103 = DIRECTION ( 'NONE',  ( 0.0000000000000000000, 1.000000000000000000, 0.0000000000000000000 ) ) ;
#104 = VERTEX_POINT ( 'NONE', #85 ) ;
#105 = CC_DESIGN_APPROVAL ( #174, ( #63 ) ) ;
#106 = CC_DESIGN_DATE_AND_TIME_ASSIGNMENT ( #88, #38, ( #125 ) ) ;
#107 = PERSON_AND_ORGANIZATION_ROLE ( 'creator' ) ;
#108 = COORDINATED_UNIVERSAL_TIME_OFFSET ( 1, 0, .AHEAD. ) ;
#109 = DATE_AND_TIME ( #203, #114 ) ;
#110 = AXIS2_PLACEMENT_3D ( 'NONE', #135, #179, #197 ) ;
#111 = PERSON_AND_ORGANIZATION_ROLE ( 'classification_officer' ) ;
#112 = ADVANCED_FACE ( 'NONE', ( #220 ), #13, .F. ) ;
#113 = DIRECTION ( 'NONE',  ( -4.275831445896958607E-31, -1.000000000000000000, -1.224646799147353207E-16 ) ) ;
#114 = LOCAL_TIME ( 7, 16, 2.000000000000000000, #126 ) ;
#115 = CARTESIAN_POINT ( 'NONE',  ( 1.319779946082704535E-13, -4.629164900776995227E-15, 37.79999999999999716 ) ) ;
#116 = EDGE_LOOP ( 'NONE', ( #28 ) ) ;
#117 = DIRECTION ( 'NONE',  ( -3.491481338843133355E-15, 1.224646799147353207E-16, -1.000000000000000000 ) ) ;
#118 = AXIS2_PLACEMENT_3D ( 'NONE', #50, #41, #140 ) ;
#119 = CARTESIAN_POINT ( 'NONE',  ( 1.326762908760390423E-13, -4.653657836759941941E-15, 38.00000000000000000 ) ) ;
#120 = DIRECTION ( 'NONE',  ( -3.491481338843133355E-15, 1.224646799147353207E-16, -1.000000000000000000 ) ) ;
#121 = CONICAL_SURFACE ( 'NONE', #139, 0.9999999999999970024, 0.5235987755982934866 ) ;
#122 = APPROVAL_ROLE ( '' ) ;
#123 = APPROVAL_DATE_TIME ( #22, #198 ) ;
#124 = APPLICATION_PROTOCOL_DEFINITION ( 'international standard', 'config_control_design', 1994, #29 ) ;
#125 = SECURITY_CLASSIFICATION ( '', '', #168 ) ;
#126 = COORDINATED_UNIVERSAL_TIME_OFFSET ( 1, 0, .AHEAD. ) ;
#127 = CC_DESIGN_PERSON_AND_ORGANIZATION_ASSIGNMENT ( #207, #57, ( #63 ) ) ;
#128 = DESIGN_CONTEXT ( 'detailed design', #29, 'design' ) ;
#129 = ORIENTED_EDGE ( 'NONE', *, *, #209, .T. ) ;
#130 = DIRECTION ( 'NONE',  ( -3.491481338843133355E-15, 1.224646799147353207E-16, -1.000000000000000000 ) ) ;
#131 = CYLINDRICAL_SURFACE ( 'NONE', #110, 0.8949999999999941336 ) ;
#132 = ORIENTED_EDGE ( 'NONE', *, *, #187, .F. ) ;
#133 = CLOSED_SHELL ( 'NONE', ( #71, #5, #39 ) ) ;
#134 = LOCAL_TIME ( 7, 16, 2.000000000000000000, #108 ) ;
#135 = CARTESIAN_POINT ( 'NONE',  ( 0.0000000000000000000, 0.0000000000000000000, 0.0000000000000000000 ) ) ;
#136 = CARTESIAN_POINT ( 'NONE',  ( 4.253275548873588879E-14, 0.9999999999999954481, 12.18186533479473965 ) ) ;
#137 = CARTESIAN_POINT ( 'NONE',  ( 4.253275548873588879E-14, -1.491848238990047904E-15, 12.18186533479473965 ) ) ;
#138 = DIRECTION ( 'NONE',  ( -3.491481338843133355E-15, 1.224646799147353207E-16, -1.000000000000000000 ) ) ;
#139 = AXIS2_PLACEMENT_3D ( 'NONE', #60, #78, #177 ) ;
#140 = DIRECTION ( 'NONE',  ( 1.000000000000000000, 0.0000000000000000000, 0.0000000000000000000 ) ) ;
#141 = CALENDAR_DATE ( 2021, 8, 10 ) ;
#142 = CALENDAR_DATE ( 2021, 8, 10 ) ;
#143 = APPROVAL_DATE_TIME ( #221, #174 ) ;
#144 = AXIS2_PLACEMENT_3D ( 'NONE', #149, #216, #163 ) ;
#145 = ORIENTED_EDGE ( 'NONE', *, *, #209, .F. ) ;
#146 = DIRECTION ( 'NONE',  ( 3.491481338843133355E-15, -1.224646799147353207E-16, 1.000000000000000000 ) ) ;
#147 =( GEOMETRIC_REPRESENTATION_CONTEXT ( 3 ) GLOBAL_UNCERTAINTY_ASSIGNED_CONTEXT ( ( #96 ) ) GLOBAL_UNIT_ASSIGNED_CONTEXT ( ( #200, #201, #53 ) ) REPRESENTATION_CONTEXT ( 'NONE', 'WORKASPACE' ) );
#148 = FACE_OUTER_BOUND ( 'NONE', #12, .T. ) ;
#149 = CARTESIAN_POINT ( 'NONE',  ( 4.189777606611760026E-14, 6.711425027411749572E-33, 12.00000000000000000 ) ) ;
#150 = PRODUCT_RELATED_PRODUCT_CATEGORY ( 'detail', '', ( #40 ) ) ;
#151 = VERTEX_POINT ( 'NONE', #136 ) ;
#152 = AXIS2_PLACEMENT_3D ( 'NONE', #115, #6, #181 ) ;
#153 = VERTEX_POINT ( 'NONE', #67 ) ;
#154 = PERSON_AND_ORGANIZATION ( #99, #159 ) ;
#155 = PERSON_AND_ORGANIZATION ( #99, #159 ) ;
#156 = COORDINATED_UNIVERSAL_TIME_OFFSET ( 1, 0, .AHEAD. ) ;
#157 = APPLICATION_CONTEXT ( 'configuration controlled 3d designs of mechanical parts and assemblies' ) ;
#158 = APPROVAL_ROLE ( '' ) ;
#159 = ORGANIZATION ( 'UNSPECIFIED', 'UNSPECIFIED', '' ) ;
#160 = EDGE_LOOP ( 'NONE', ( #161 ) ) ;
#161 = ORIENTED_EDGE ( 'NONE', *, *, #14, .F. ) ;
#162 = FACE_OUTER_BOUND ( 'NONE', #27, .T. ) ;
#163 = DIRECTION ( 'NONE',  ( -4.275831445896958607E-31, -1.000000000000000000, -1.224646799147353207E-16 ) ) ;
#164 = PLANE ( 'NONE',  #144 ) ;
#165 = CIRCLE ( 'NONE', #190, 0.8949999999999945777 ) ;
#166 = AXIS2_PLACEMENT_3D ( 'NONE', #83, #184, #82 ) ;
#167 = CARTESIAN_POINT ( 'NONE',  ( 1.326762908760390423E-13, 0.7999999999999949374, 38.00000000000000000 ) ) ;
#168 = SECURITY_CLASSIFICATION_LEVEL ( 'unclassified' ) ;
#169 = APPROVAL_DATE_TIME ( #68, #69 ) ;
#170 = AXIS2_PLACEMENT_3D ( 'NONE', #75, #146, #210 ) ;
#171 = CALENDAR_DATE ( 2021, 8, 10 ) ;
#172 = CC_DESIGN_APPROVAL ( #69, ( #125 ) ) ;
#173 = CALENDAR_DATE ( 2021, 8, 10 ) ;
#174 = APPROVAL ( #189, 'UNSPECIFIED' ) ;
#175 = PRODUCT_DEFINITION_SHAPE ( 'NONE', 'NONE',  #63 ) ;
#176 = CC_DESIGN_APPROVAL ( #198, ( #51 ) ) ;
#177 = DIRECTION ( 'NONE',  ( 0.0000000000000000000, -1.000000000000000000, 0.0000000000000000000 ) ) ;
#178 = ORIENTED_EDGE ( 'NONE', *, *, #14, .T. ) ;
#179 = DIRECTION ( 'NONE',  ( -3.491481338843133355E-15, 1.224646799147353207E-16, -1.000000000000000000 ) ) ;
#180 = AXIS2_PLACEMENT_3D ( 'NONE', #33, #54, #218 ) ;
#181 = DIRECTION ( 'NONE',  ( 0.0000000000000000000, 1.000000000000000000, 0.0000000000000000000 ) ) ;
#182 = CYLINDRICAL_SURFACE ( 'NONE', #180, 0.9999999999999983347 ) ;
#183 = CARTESIAN_POINT ( 'NONE',  ( 1.326762908760390423E-13, 5.999039130647358587E-33, 38.00000000000000000 ) ) ;
#184 = DIRECTION ( 'NONE',  ( -3.491481338843133355E-15, 1.224646799147353207E-16, -1.000000000000000000 ) ) ;
#185 = CARTESIAN_POINT ( 'NONE',  ( 1.326762908760390423E-13, -4.653657836759941941E-15, 38.00000000000000000 ) ) ;
#186 = VERTEX_POINT ( 'NONE', #167 ) ;
#187 = EDGE_CURVE ( 'NONE', #151, #151, #205, .T. ) ;
#188 = PERSON_AND_ORGANIZATION ( #99, #159 ) ;
#189 = APPROVAL_STATUS ( 'not_yet_approved' ) ;
#190 = AXIS2_PLACEMENT_3D ( 'NONE', #100, #117, #49 ) ;
#191 = PERSON_AND_ORGANIZATION ( #99, #159 ) ;
#192 = ADVANCED_FACE ( 'NONE', ( #31 ), #164, .F. ) ;
#193 = PLANE ( 'NONE',  #43 ) ;
#194 = CC_DESIGN_PERSON_AND_ORGANIZATION_ASSIGNMENT ( #154, #73, ( #40 ) ) ;
#195 = FACE_BOUND ( 'NONE', #160, .T. ) ;
#196 = DIRECTION ( 'NONE',  ( 0.0000000000000000000, 1.000000000000000000, 0.0000000000000000000 ) ) ;
#197 = DIRECTION ( 'NONE',  ( 4.275831445896958607E-31, 1.000000000000000000, 1.224646799147352961E-16 ) ) ;
#198 = APPROVAL ( #18, 'UNSPECIFIED' ) ;
#199 = APPROVAL_PERSON_ORGANIZATION ( #188, #69, #21 ) ;
#200 =( LENGTH_UNIT ( ) NAMED_UNIT ( * ) SI_UNIT ( .MILLI., .METRE. ) );
#201 =( NAMED_UNIT ( * ) PLANE_ANGLE_UNIT ( ) SI_UNIT ( $, .RADIAN. ) );
#202 = DIRECTION ( 'NONE',  ( -3.491481338843133355E-15, 1.224646799147353207E-16, -1.000000000000000000 ) ) ;
#203 = CALENDAR_DATE ( 2021, 8, 10 ) ;
#204 = PERSON_AND_ORGANIZATION ( #99, #159 ) ;
#205 = CIRCLE ( 'NONE', #72, 0.9999999999999970024 ) ;
#206 = ADVANCED_BREP_SHAPE_REPRESENTATION ( '58199', ( #9, #11, #118 ), #147 ) ;
#207 = PERSON_AND_ORGANIZATION ( #99, #159 ) ;
#208 = CARTESIAN_POINT ( 'NONE',  ( 4.189777606611760026E-14, -1.469576158976823947E-15, 12.00000000000000000 ) ) ;
#209 = EDGE_CURVE ( 'NONE', #104, #104, #47, .T. ) ;
#210 = DIRECTION ( 'NONE',  ( -4.303754065669831570E-31, -1.000000000000000000, -1.211399075402806914E-16 ) ) ;
#211 = ORIENTED_EDGE ( 'NONE', *, *, #79, .T. ) ;
#212 = EDGE_CURVE ( 'NONE', #186, #186, #36, .T. ) ;
#213 = EDGE_LOOP ( 'NONE', ( #145 ) ) ;
#214 = EDGE_LOOP ( 'NONE', ( #77 ) ) ;
#215 = AXIS2_PLACEMENT_3D ( 'NONE', #185, #120, #64 ) ;
#216 = DIRECTION ( 'NONE',  ( 3.491481338843133355E-15, -1.224646799147353207E-16, 1.000000000000000000 ) ) ;
#217 = APPLICATION_PROTOCOL_DEFINITION ( 'international standard', 'config_control_design', 1994, #157 ) ;
#218 = DIRECTION ( 'NONE',  ( 4.275831445896958607E-31, 1.000000000000000000, 1.224646799147353207E-16 ) ) ;
#219 = AXIS2_PLACEMENT_3D ( 'NONE', #183, #65, #30 ) ;
#220 = FACE_OUTER_BOUND ( 'NONE', #214, .T. ) ;
#221 = DATE_AND_TIME ( #141, #3 ) ;
#222 = APPROVAL_PERSON_ORGANIZATION ( #56, #174, #158 ) ;
#223 = SHAPE_DEFINITION_REPRESENTATION ( #175, #206 ) ;
ENDSEC;
END-ISO-10303-21;
