ISO-10303-21;
HEADER;
FILE_DESCRIPTION (( 'STEP AP203' ),
    '1' );
FILE_NAME ('58197.step',
    '2021-10-07T13:48:22',
    ( '' ),
    ( '' ),
    'SwSTEP 2.0',
    'SolidWorks 2019',
    '' );
FILE_SCHEMA (( 'CONFIG_CONTROL_DESIGN' ));
ENDSEC;

DATA;
#1 =( NAMED_UNIT ( * ) SI_UNIT ( $, .STERADIAN. ) SOLID_ANGLE_UNIT ( ) );
#2 = DATE_AND_TIME ( #112, #221 ) ;
#3 = AXIS2_PLACEMENT_3D ( 'NONE', #173, #115, #154 ) ;
#4 = PERSON_AND_ORGANIZATION_ROLE ( 'classification_officer' ) ;
#5 =( NAMED_UNIT ( * ) PLANE_ANGLE_UNIT ( ) SI_UNIT ( $, .RADIAN. ) );
#6 = EDGE_LOOP ( 'NONE', ( #100 ) ) ;
#7 = EDGE_LOOP ( 'NONE', ( #64 ) ) ;
#8 = CONICAL_SURFACE ( 'NONE', #142, 0.9999999999999970024, 0.5235987755982934866 ) ;
#9 = CALENDAR_DATE ( 2021, 7, 10 ) ;
#10 = EDGE_LOOP ( 'NONE', ( #203 ) ) ;
#11 = DIRECTION ( 'NONE',  ( 0.0000000000000000000, 1.000000000000000000, 0.0000000000000000000 ) ) ;
#12 = CARTESIAN_POINT ( 'NONE',  ( 1.326762908760390423E-13, -4.653657836759941941E-15, 38.00000000000000000 ) ) ;
#13 = ADVANCED_BREP_SHAPE_REPRESENTATION ( '58197', ( #21, #108, #80 ), #131 ) ;
#14 = FACE_OUTER_BOUND ( 'NONE', #85, .T. ) ;
#15 = CARTESIAN_POINT ( 'NONE',  ( 1.877614806529518147E-15, -6.585786202740923559E-17, 0.5377702540296682709 ) ) ;
#16 = ADVANCED_FACE ( 'NONE', ( #47 ), #189, .F. ) ;
#17 = APPROVAL_PERSON_ORGANIZATION ( #57, #29, #61 ) ;
#18 = ORGANIZATION ( 'UNSPECIFIED', 'UNSPECIFIED', '' ) ;
#19 = VERTEX_POINT ( 'NONE', #50 ) ;
#20 = PERSON_AND_ORGANIZATION ( #79, #18 ) ;
#21 = MANIFOLD_SOLID_BREP ( 'Corps-Déplacer/Copier1[1]', #66 ) ;
#22 = AXIS2_PLACEMENT_3D ( 'NONE', #103, #69, #11 ) ;
#23 = PERSON_AND_ORGANIZATION ( #79, #18 ) ;
#24 = DATE_AND_TIME ( #9, #89 ) ;
#25 = ORIENTED_EDGE ( 'NONE', *, *, #116, .F. ) ;
#26 = ORIENTED_EDGE ( 'NONE', *, *, #183, .T. ) ;
#27 = AXIS2_PLACEMENT_3D ( 'NONE', #180, #220, #87 ) ;
#28 = CARTESIAN_POINT ( 'NONE',  ( 4.189777606611760026E-14, 0.8949999999999930234, 12.00000000000000000 ) ) ;
#29 = APPROVAL ( #185, 'UNSPECIFIED' ) ;
#30 = CARTESIAN_POINT ( 'NONE',  ( 0.0000000000000000000, 0.0000000000000000000, 0.0000000000000000000 ) ) ;
#31 = AXIS2_PLACEMENT_3D ( 'NONE', #105, #178, #73 ) ;
#32 = CIRCLE ( 'NONE', #42, 0.8949999999999935785 ) ;
#33 = AXIS2_PLACEMENT_3D ( 'NONE', #86, #144, #217 ) ;
#34 = UNCERTAINTY_MEASURE_WITH_UNIT (LENGTH_MEASURE( 1.000000000000000082E-05 ), #127, 'distance_accuracy_value', 'NONE');
#35 = CYLINDRICAL_SURFACE ( 'NONE', #99, 0.8949999999999941336 ) ;
#36 = CC_DESIGN_PERSON_AND_ORGANIZATION_ASSIGNMENT ( #95, #212, ( #216 ) ) ;
#37 = DIRECTION ( 'NONE',  ( 4.275831445896958607E-31, 1.000000000000000000, 1.224646799147353207E-16 ) ) ;
#38 = AXIS2_PLACEMENT_3D ( 'NONE', #12, #218, #71 ) ;
#39 = DATE_AND_TIME ( #163, #204 ) ;
#40 = APPLICATION_PROTOCOL_DEFINITION ( 'international standard', 'config_control_design', 1994, #60 ) ;
#41 = MECHANICAL_CONTEXT ( 'NONE', #60, 'mechanical' ) ;
#42 = AXIS2_PLACEMENT_3D ( 'NONE', #15, #158, #141 ) ;
#43 = CALENDAR_DATE ( 2021, 7, 10 ) ;
#44 = CALENDAR_DATE ( 2021, 7, 10 ) ;
#45 = APPROVAL ( #92, 'UNSPECIFIED' ) ;
#46 = AXIS2_PLACEMENT_3D ( 'NONE', #52, #193, #88 ) ;
#47 = FACE_OUTER_BOUND ( 'NONE', #170, .T. ) ;
#48 = ORIENTED_EDGE ( 'NONE', *, *, #68, .T. ) ;
#49 = LOCAL_TIME ( 15, 48, 22.00000000000000000, #196 ) ;
#50 = CARTESIAN_POINT ( 'NONE',  ( 4.189777606611760026E-14, 0.8949999999999930234, 12.00000000000000000 ) ) ;
#51 = FACE_OUTER_BOUND ( 'NONE', #67, .T. ) ;
#52 = CARTESIAN_POINT ( 'NONE',  ( 1.326762908760390423E-13, -4.653657836759941941E-15, 38.00000000000000000 ) ) ;
#53 = CC_DESIGN_PERSON_AND_ORGANIZATION_ASSIGNMENT ( #76, #186, ( #216 ) ) ;
#54 = VERTEX_POINT ( 'NONE', #181 ) ;
#55 = CARTESIAN_POINT ( 'NONE',  ( 4.189777606611760026E-14, 6.711425027411749572E-33, 12.00000000000000000 ) ) ;
#56 = DATE_AND_TIME ( #43, #63 ) ;
#57 = PERSON_AND_ORGANIZATION ( #79, #18 ) ;
#58 = ADVANCED_FACE ( 'NONE', ( #151 ), #187, .T. ) ;
#59 = PERSON_AND_ORGANIZATION_ROLE ( 'creator' ) ;
#60 = APPLICATION_CONTEXT ( 'configuration controlled 3d designs of mechanical parts and assemblies' ) ;
#61 = APPROVAL_ROLE ( '' ) ;
#62 = CIRCLE ( 'NONE', #223, 0.8949999999999945777 ) ;
#63 = LOCAL_TIME ( 15, 48, 22.00000000000000000, #130 ) ;
#64 = ORIENTED_EDGE ( 'NONE', *, *, #183, .F. ) ;
#65 = APPROVAL_DATE_TIME ( #24, #128 ) ;
#66 = CLOSED_SHELL ( 'NONE', ( #94, #140, #123, #179, #16 ) ) ;
#67 = EDGE_LOOP ( 'NONE', ( #26 ) ) ;
#68 = EDGE_CURVE ( 'NONE', #54, #54, #165, .T. ) ;
#69 = DIRECTION ( 'NONE',  ( -3.491481338843133355E-15, 1.224646799147353207E-16, -1.000000000000000000 ) ) ;
#70 = FACE_OUTER_BOUND ( 'NONE', #96, .T. ) ;
#71 = DIRECTION ( 'NONE',  ( 0.0000000000000000000, 1.000000000000000000, 0.0000000000000000000 ) ) ;
#72 = CC_DESIGN_DATE_AND_TIME_ASSIGNMENT ( #2, #129, ( #133 ) ) ;
#73 = DIRECTION ( 'NONE',  ( -4.275831445896958607E-31, -1.000000000000000000, -1.224646799147353207E-16 ) ) ;
#74 = CARTESIAN_POINT ( 'NONE',  ( 4.253275548873588879E-14, -1.491848238990047904E-15, 12.18186533479473965 ) ) ;
#75 = PERSON_AND_ORGANIZATION ( #79, #18 ) ;
#76 = PERSON_AND_ORGANIZATION ( #79, #18 ) ;
#77 = CARTESIAN_POINT ( 'NONE',  ( 1.326762908760390423E-13, 0.7999999999999949374, 38.00000000000000000 ) ) ;
#78 = EDGE_CURVE ( 'NONE', #19, #19, #152, .T. ) ;
#79 = PERSON ( 'UNSPECIFIED', 'UNSPECIFIED', 'UNSPECIFIED', ('UNSPECIFIED'), ('UNSPECIFIED'), ('UNSPECIFIED') ) ;
#80 = AXIS2_PLACEMENT_3D ( 'NONE', #107, #109, #91 ) ;
#81 = SHAPE_DEFINITION_REPRESENTATION ( #168, #13 ) ;
#82 = EDGE_LOOP ( 'NONE', ( #132 ) ) ;
#83 = CC_DESIGN_PERSON_AND_ORGANIZATION_ASSIGNMENT ( #20, #184, ( #190 ) ) ;
#84 = AXIS2_PLACEMENT_3D ( 'NONE', #55, #126, #192 ) ;
#85 = EDGE_LOOP ( 'NONE', ( #113 ) ) ;
#86 = CARTESIAN_POINT ( 'NONE',  ( 1.877614806529518147E-15, -6.585786202740923559E-17, 0.5377702540296682709 ) ) ;
#87 = DIRECTION ( 'NONE',  ( 0.0000000000000000000, 1.000000000000000000, 0.0000000000000000000 ) ) ;
#88 = DIRECTION ( 'NONE',  ( 0.0000000000000000000, 1.000000000000000000, 0.0000000000000000000 ) ) ;
#89 = LOCAL_TIME ( 15, 48, 22.00000000000000000, #215 ) ;
#90 = VERTEX_POINT ( 'NONE', #77 ) ;
#91 = DIRECTION ( 'NONE',  ( 1.000000000000000000, 0.0000000000000000000, 0.0000000000000000000 ) ) ;
#92 = APPROVAL_STATUS ( 'not_yet_approved' ) ;
#93 = APPROVAL_DATE_TIME ( #39, #29 ) ;
#94 = ADVANCED_FACE ( 'NONE', ( #14 ), #138, .F. ) ;
#95 = PERSON_AND_ORGANIZATION ( #79, #18 ) ;
#96 = EDGE_LOOP ( 'NONE', ( #120 ) ) ;
#97 = CC_DESIGN_APPROVAL ( #29, ( #216 ) ) ;
#98 = EDGE_LOOP ( 'NONE', ( #172 ) ) ;
#99 = AXIS2_PLACEMENT_3D ( 'NONE', #30, #104, #210 ) ;
#100 = ORIENTED_EDGE ( 'NONE', *, *, #116, .T. ) ;
#101 = VERTEX_POINT ( 'NONE', #175 ) ;
#102 = CC_DESIGN_PERSON_AND_ORGANIZATION_ASSIGNMENT ( #213, #4, ( #153 ) ) ;
#103 = CARTESIAN_POINT ( 'NONE',  ( 1.319779946082704535E-13, -4.629164900776995227E-15, 37.79999999999999716 ) ) ;
#104 = DIRECTION ( 'NONE',  ( -3.491481338843133355E-15, 1.224646799147353207E-16, -1.000000000000000000 ) ) ;
#105 = CARTESIAN_POINT ( 'NONE',  ( 4.189777606611760026E-14, 6.711425027411749572E-33, 12.00000000000000000 ) ) ;
#106 = DIRECTION ( 'NONE',  ( 3.491481338843133355E-15, -1.224646799147353207E-16, 1.000000000000000000 ) ) ;
#107 = CARTESIAN_POINT ( 'NONE',  ( 0.0000000000000000000, 0.0000000000000000000, 0.0000000000000000000 ) ) ;
#108 = MANIFOLD_SOLID_BREP ( 'Corps-Déplacer/Copier1[2]', #118 ) ;
#109 = DIRECTION ( 'NONE',  ( 0.0000000000000000000, 0.0000000000000000000, 1.000000000000000000 ) ) ;
#110 = APPROVAL_DATE_TIME ( #182, #45 ) ;
#111 = DATE_TIME_ROLE ( 'classification_date' ) ;
#112 = CALENDAR_DATE ( 2021, 7, 10 ) ;
#113 = ORIENTED_EDGE ( 'NONE', *, *, #174, .T. ) ;
#114 = APPROVAL_PERSON_ORGANIZATION ( #199, #45, #166 ) ;
#115 = DIRECTION ( 'NONE',  ( -3.491481338843133355E-15, 1.224646799147353207E-16, -1.000000000000000000 ) ) ;
#116 = EDGE_CURVE ( 'NONE', #125, #125, #209, .T. ) ;
#117 = ORIENTED_EDGE ( 'NONE', *, *, #174, .F. ) ;
#118 = CLOSED_SHELL ( 'NONE', ( #159, #164, #58 ) ) ;
#119 = CIRCLE ( 'NONE', #46, 0.7999999999999996003 ) ;
#120 = ORIENTED_EDGE ( 'NONE', *, *, #68, .F. ) ;
#121 = CARTESIAN_POINT ( 'NONE',  ( 4.253275548873588879E-14, 0.9999999999999954481, 12.18186533479473965 ) ) ;
#122 = CARTESIAN_POINT ( 'NONE',  ( 4.189777606611760026E-14, -1.469576158976823947E-15, 12.00000000000000000 ) ) ;
#123 = ADVANCED_FACE ( 'NONE', ( #222, #157 ), #211, .T. ) ;
#124 = FACE_BOUND ( 'NONE', #150, .T. ) ;
#125 = VERTEX_POINT ( 'NONE', #121 ) ;
#126 = DIRECTION ( 'NONE',  ( 3.491481338843133355E-15, -1.224646799147353207E-16, 1.000000000000000000 ) ) ;
#127 =( LENGTH_UNIT ( ) NAMED_UNIT ( * ) SI_UNIT ( .MILLI., .METRE. ) );
#128 = APPROVAL ( #167, 'UNSPECIFIED' ) ;
#129 = DATE_TIME_ROLE ( 'creation_date' ) ;
#130 = COORDINATED_UNIVERSAL_TIME_OFFSET ( 1, 0, .AHEAD. ) ;
#131 =( GEOMETRIC_REPRESENTATION_CONTEXT ( 3 ) GLOBAL_UNCERTAINTY_ASSIGNED_CONTEXT ( ( #34 ) ) GLOBAL_UNIT_ASSIGNED_CONTEXT ( ( #127, #5, #1 ) ) REPRESENTATION_CONTEXT ( 'NONE', 'WORKASPACE' ) );
#132 = ORIENTED_EDGE ( 'NONE', *, *, #78, .F. ) ;
#133 = PRODUCT_DEFINITION ( 'UNKNOWN', '', #216, #176 ) ;
#134 = CC_DESIGN_APPROVAL ( #45, ( #133 ) ) ;
#135 = CONICAL_SURFACE ( 'NONE', #33, 0.8949999999999935785, 1.029744258676649871 ) ;
#136 = CC_DESIGN_PERSON_AND_ORGANIZATION_ASSIGNMENT ( #75, #59, ( #133 ) ) ;
#137 = EDGE_LOOP ( 'NONE', ( #48 ) ) ;
#138 = PLANE ( 'NONE',  #84 ) ;
#139 = FACE_BOUND ( 'NONE', #98, .T. ) ;
#140 = ADVANCED_FACE ( 'NONE', ( #124, #206 ), #8, .T. ) ;
#141 = DIRECTION ( 'NONE',  ( 4.303754065669831570E-31, 1.000000000000000000, 1.211399075402806914E-16 ) ) ;
#142 = AXIS2_PLACEMENT_3D ( 'NONE', #74, #106, #208 ) ;
#143 = DIRECTION ( 'NONE',  ( -3.491481338843133355E-15, 1.224646799147353207E-16, -1.000000000000000000 ) ) ;
#144 = DIRECTION ( 'NONE',  ( 3.491481338843133355E-15, -1.224646799147353207E-16, 1.000000000000000000 ) ) ;
#145 = COORDINATED_UNIVERSAL_TIME_OFFSET ( 1, 0, .AHEAD. ) ;
#146 = SECURITY_CLASSIFICATION_LEVEL ( 'unclassified' ) ;
#147 = APPROVAL_ROLE ( '' ) ;
#148 = CC_DESIGN_SECURITY_CLASSIFICATION ( #153, ( #216 ) ) ;
#149 = CC_DESIGN_APPROVAL ( #128, ( #153 ) ) ;
#150 = EDGE_LOOP ( 'NONE', ( #117 ) ) ;
#151 = FACE_OUTER_BOUND ( 'NONE', #82, .T. ) ;
#152 = CIRCLE ( 'NONE', #214, 0.8949999999999945777 ) ;
#153 = SECURITY_CLASSIFICATION ( '', '', #146 ) ;
#154 = DIRECTION ( 'NONE',  ( 4.275831445896958607E-31, 1.000000000000000000, 1.224646799147353207E-16 ) ) ;
#155 = DIRECTION ( 'NONE',  ( 0.0000000000000000000, 1.000000000000000000, 0.0000000000000000000 ) ) ;
#156 = FACE_OUTER_BOUND ( 'NONE', #10, .T. ) ;
#157 = FACE_OUTER_BOUND ( 'NONE', #137, .T. ) ;
#158 = DIRECTION ( 'NONE',  ( -3.491481338843133355E-15, 1.224646799147353207E-16, -1.000000000000000000 ) ) ;
#159 = ADVANCED_FACE ( 'NONE', ( #51 ), #135, .T. ) ;
#160 = AXIS2_PLACEMENT_3D ( 'NONE', #195, #219, #37 ) ;
#161 = DIRECTION ( 'NONE',  ( -3.491481338843133355E-15, 1.224646799147353207E-16, -1.000000000000000000 ) ) ;
#162 = APPROVAL_PERSON_ORGANIZATION ( #23, #128, #147 ) ;
#163 = CALENDAR_DATE ( 2021, 7, 10 ) ;
#164 = ADVANCED_FACE ( 'NONE', ( #205, #156 ), #35, .T. ) ;
#165 = CIRCLE ( 'NONE', #22, 0.9999999999999993339 ) ;
#166 = APPROVAL_ROLE ( '' ) ;
#167 = APPROVAL_STATUS ( 'not_yet_approved' ) ;
#168 = PRODUCT_DEFINITION_SHAPE ( 'NONE', 'NONE',  #133 ) ;
#169 = CONICAL_SURFACE ( 'NONE', #38, 0.7999999999999996003, 0.7853981633974507215 ) ;
#170 = EDGE_LOOP ( 'NONE', ( #171 ) ) ;
#171 = ORIENTED_EDGE ( 'NONE', *, *, #207, .F. ) ;
#172 = ORIENTED_EDGE ( 'NONE', *, *, #207, .T. ) ;
#173 = CARTESIAN_POINT ( 'NONE',  ( 1.326762908760390423E-13, 5.999039130647358587E-33, 38.00000000000000000 ) ) ;
#174 = EDGE_CURVE ( 'NONE', #194, #194, #62, .T. ) ;
#175 = CARTESIAN_POINT ( 'NONE',  ( 1.877614806529518541E-15, 0.8949999999999934674, 0.5377702540296683820 ) ) ;
#176 = DESIGN_CONTEXT ( 'detailed design', #188, 'design' ) ;
#177 = CARTESIAN_POINT ( 'NONE',  ( 4.189777606611760026E-14, -1.469576158976823947E-15, 12.00000000000000000 ) ) ;
#178 = DIRECTION ( 'NONE',  ( 3.491481338843133355E-15, -1.224646799147353207E-16, 1.000000000000000000 ) ) ;
#179 = ADVANCED_FACE ( 'NONE', ( #70, #139 ), #169, .T. ) ;
#180 = CARTESIAN_POINT ( 'NONE',  ( 4.253275548873588879E-14, -1.491848238990047904E-15, 12.18186533479473965 ) ) ;
#181 = CARTESIAN_POINT ( 'NONE',  ( 1.319779946082704535E-13, 0.9999999999999947820, 37.79999999999999716 ) ) ;
#182 = DATE_AND_TIME ( #44, #49 ) ;
#183 = EDGE_CURVE ( 'NONE', #101, #101, #32, .T. ) ;
#184 = PERSON_AND_ORGANIZATION_ROLE ( 'design_owner' ) ;
#185 = APPROVAL_STATUS ( 'not_yet_approved' ) ;
#186 = PERSON_AND_ORGANIZATION_ROLE ( 'creator' ) ;
#187 = PLANE ( 'NONE',  #31 ) ;
#188 = APPLICATION_CONTEXT ( 'configuration controlled 3d designs of mechanical parts and assemblies' ) ;
#189 = PLANE ( 'NONE',  #3 ) ;
#190 = PRODUCT ( '58197', '58197', '', ( #41 ) ) ;
#191 = DIRECTION ( 'NONE',  ( 0.0000000000000000000, 1.000000000000000000, 0.0000000000000000000 ) ) ;
#192 = DIRECTION ( 'NONE',  ( -4.275831445896958607E-31, -1.000000000000000000, -1.224646799147353207E-16 ) ) ;
#193 = DIRECTION ( 'NONE',  ( -3.491481338843133355E-15, 1.224646799147353207E-16, -1.000000000000000000 ) ) ;
#194 = VERTEX_POINT ( 'NONE', #28 ) ;
#195 = CARTESIAN_POINT ( 'NONE',  ( 0.0000000000000000000, 0.0000000000000000000, 0.0000000000000000000 ) ) ;
#196 = COORDINATED_UNIVERSAL_TIME_OFFSET ( 1, 0, .AHEAD. ) ;
#197 = APPLICATION_PROTOCOL_DEFINITION ( 'international standard', 'config_control_design', 1994, #188 ) ;
#198 = CC_DESIGN_DATE_AND_TIME_ASSIGNMENT ( #56, #111, ( #153 ) ) ;
#199 = PERSON_AND_ORGANIZATION ( #79, #18 ) ;
#200 = COORDINATED_UNIVERSAL_TIME_OFFSET ( 1, 0, .AHEAD. ) ;
#201 = EDGE_LOOP ( 'NONE', ( #25 ) ) ;
#202 = PRODUCT_RELATED_PRODUCT_CATEGORY ( 'detail', '', ( #190 ) ) ;
#203 = ORIENTED_EDGE ( 'NONE', *, *, #78, .T. ) ;
#204 = LOCAL_TIME ( 15, 48, 22.00000000000000000, #145 ) ;
#205 = FACE_OUTER_BOUND ( 'NONE', #7, .T. ) ;
#206 = FACE_OUTER_BOUND ( 'NONE', #6, .T. ) ;
#207 = EDGE_CURVE ( 'NONE', #90, #90, #119, .T. ) ;
#208 = DIRECTION ( 'NONE',  ( 0.0000000000000000000, -1.000000000000000000, 0.0000000000000000000 ) ) ;
#209 = CIRCLE ( 'NONE', #27, 0.9999999999999970024 ) ;
#210 = DIRECTION ( 'NONE',  ( 4.275831445896958607E-31, 1.000000000000000000, 1.224646799147352961E-16 ) ) ;
#211 = CYLINDRICAL_SURFACE ( 'NONE', #160, 0.9999999999999983347 ) ;
#212 = PERSON_AND_ORGANIZATION_ROLE ( 'design_supplier' ) ;
#213 = PERSON_AND_ORGANIZATION ( #79, #18 ) ;
#214 = AXIS2_PLACEMENT_3D ( 'NONE', #122, #161, #155 ) ;
#215 = COORDINATED_UNIVERSAL_TIME_OFFSET ( 1, 0, .AHEAD. ) ;
#216 = PRODUCT_DEFINITION_FORMATION_WITH_SPECIFIED_SOURCE ( 'ANY', '', #190, .NOT_KNOWN. ) ;
#217 = DIRECTION ( 'NONE',  ( -4.303754065669831570E-31, -1.000000000000000000, -1.211399075402806914E-16 ) ) ;
#218 = DIRECTION ( 'NONE',  ( -3.491481338843133355E-15, 1.224646799147353207E-16, -1.000000000000000000 ) ) ;
#219 = DIRECTION ( 'NONE',  ( -3.491481338843133355E-15, 1.224646799147353207E-16, -1.000000000000000000 ) ) ;
#220 = DIRECTION ( 'NONE',  ( -3.491481338843133355E-15, 1.224646799147353207E-16, -1.000000000000000000 ) ) ;
#221 = LOCAL_TIME ( 15, 48, 22.00000000000000000, #200 ) ;
#222 = FACE_OUTER_BOUND ( 'NONE', #201, .T. ) ;
#223 = AXIS2_PLACEMENT_3D ( 'NONE', #177, #143, #191 ) ;
ENDSEC;
END-ISO-10303-21;
