ISO-10303-21;
HEADER;
FILE_DESCRIPTION (( 'STEP AP203' ),
    '1' );
FILE_NAME ('58147.step',
    '2021-10-08T05:54:05',
    ( '' ),
    ( '' ),
    'SwSTEP 2.0',
    'SolidWorks 2019',
    '' );
FILE_SCHEMA (( 'CONFIG_CONTROL_DESIGN' ));
ENDSEC;

DATA;
#1 = APPROVAL_STATUS ( 'not_yet_approved' ) ;
#2 = LOCAL_TIME ( 7, 54, 5.000000000000000000, #18 ) ;
#3 = PERSON_AND_ORGANIZATION ( #51, #159 ) ;
#4 = DIRECTION ( 'NONE',  ( 0.0000000000000000000, 1.000000000000000000, 0.0000000000000000000 ) ) ;
#5 = AXIS2_PLACEMENT_3D ( 'NONE', #101, #160, #62 ) ;
#6 = EDGE_LOOP ( 'NONE', ( #8 ) ) ;
#7 = ORIENTED_EDGE ( 'NONE', *, *, #218, .F. ) ;
#8 = ORIENTED_EDGE ( 'NONE', *, *, #143, .F. ) ;
#9 = CONICAL_SURFACE ( 'NONE', #45, 0.6799999999999989386, 1.047197551196592746 ) ;
#10 = ADVANCED_FACE ( 'NONE', ( #194, #41 ), #210, .T. ) ;
#11 = MANIFOLD_SOLID_BREP ( 'Corps-Déplacer/Copier1[2]', #163 ) ;
#12 = CARTESIAN_POINT ( 'NONE',  ( 1.040461438975253740E-13, -3.649447461459112464E-15, 29.80000000000000071 ) ) ;
#13 = DIRECTION ( 'NONE',  ( 3.491481338843133355E-15, -1.224646799147353207E-16, 1.000000000000000000 ) ) ;
#14 = MECHANICAL_CONTEXT ( 'NONE', #186, 'mechanical' ) ;
#15 = DIRECTION ( 'NONE',  ( 1.000000000000000000, 0.0000000000000000000, 0.0000000000000000000 ) ) ;
#16 = CARTESIAN_POINT ( 'NONE',  ( 1.047444401652940007E-13, 0.5499999999999963807, 30.00000000000000000 ) ) ;
#17 = PRODUCT_DEFINITION ( 'UNKNOWN', '', #146, #140 ) ;
#18 = COORDINATED_UNIVERSAL_TIME_OFFSET ( 1, 0, .AHEAD. ) ;
#19 = DATE_AND_TIME ( #67, #25 ) ;
#20 = CC_DESIGN_PERSON_AND_ORGANIZATION_ASSIGNMENT ( #128, #185, ( #146 ) ) ;
#21 = APPROVAL_STATUS ( 'not_yet_approved' ) ;
#22 = AXIS2_PLACEMENT_3D ( 'NONE', #23, #166, #161 ) ;
#23 = CARTESIAN_POINT ( 'NONE',  ( 0.0000000000000000000, 0.0000000000000000000, 0.0000000000000000000 ) ) ;
#24 = EDGE_LOOP ( 'NONE', ( #172 ) ) ;
#25 = LOCAL_TIME ( 7, 54, 5.000000000000000000, #100 ) ;
#26 = FACE_OUTER_BOUND ( 'NONE', #24, .T. ) ;
#27 = CARTESIAN_POINT ( 'NONE',  ( 1.047444401652940007E-13, -3.673940397442059178E-15, 30.00000000000000000 ) ) ;
#28 = CARTESIAN_POINT ( 'NONE',  ( 3.910459099504309989E-14, 0.6799999999999991607, 11.20000000000000107 ) ) ;
#29 = APPLICATION_PROTOCOL_DEFINITION ( 'international standard', 'config_control_design', 1994, #186 ) ;
#30 = VERTEX_POINT ( 'NONE', #95 ) ;
#31 = AXIS2_PLACEMENT_3D ( 'NONE', #173, #209, #84 ) ;
#32 = DIRECTION ( 'NONE',  ( -5.664499836433055076E-31, -1.000000000000000000, -1.594414959537508899E-16 ) ) ;
#33 =( LENGTH_UNIT ( ) NAMED_UNIT ( * ) SI_UNIT ( .MILLI., .METRE. ) );
#34 = ADVANCED_FACE ( 'NONE', ( #155, #212 ), #112, .T. ) ;
#35 = DATE_TIME_ROLE ( 'classification_date' ) ;
#36 =( GEOMETRIC_REPRESENTATION_CONTEXT ( 3 ) GLOBAL_UNCERTAINTY_ASSIGNED_CONTEXT ( ( #177 ) ) GLOBAL_UNIT_ASSIGNED_CONTEXT ( ( #33, #108, #182 ) ) REPRESENTATION_CONTEXT ( 'NONE', 'WORKASPACE' ) );
#37 = DATE_AND_TIME ( #201, #2 ) ;
#38 = CIRCLE ( 'NONE', #61, 0.6800000000000006040 ) ;
#39 = EDGE_CURVE ( 'NONE', #30, #30, #118, .T. ) ;
#40 = EDGE_LOOP ( 'NONE', ( #7 ) ) ;
#41 = FACE_OUTER_BOUND ( 'NONE', #178, .T. ) ;
#42 = DIRECTION ( 'NONE',  ( 0.0000000000000000000, 1.000000000000000000, 0.0000000000000000000 ) ) ;
#43 = ORIENTED_EDGE ( 'NONE', *, *, #180, .T. ) ;
#44 = DIRECTION ( 'NONE',  ( 0.0000000000000000000, 1.000000000000000000, 0.0000000000000000000 ) ) ;
#45 = AXIS2_PLACEMENT_3D ( 'NONE', #219, #109, #32 ) ;
#46 = VERTEX_POINT ( 'NONE', #181 ) ;
#47 = CARTESIAN_POINT ( 'NONE',  ( 0.0000000000000000000, 0.0000000000000000000, 0.0000000000000000000 ) ) ;
#48 = AXIS2_PLACEMENT_3D ( 'NONE', #64, #49, #91 ) ;
#49 = DIRECTION ( 'NONE',  ( -3.491481338843133355E-15, 1.224646799147353207E-16, -1.000000000000000000 ) ) ;
#50 = PERSON_AND_ORGANIZATION_ROLE ( 'creator' ) ;
#51 = PERSON ( 'UNSPECIFIED', 'UNSPECIFIED', 'UNSPECIFIED', ('UNSPECIFIED'), ('UNSPECIFIED'), ('UNSPECIFIED') ) ;
#52 = COORDINATED_UNIVERSAL_TIME_OFFSET ( 1, 0, .AHEAD. ) ;
#53 = LOCAL_TIME ( 7, 54, 5.000000000000000000, #70 ) ;
#54 = DIRECTION ( 'NONE',  ( -3.491481338843133355E-15, 1.224646799147353207E-16, -1.000000000000000000 ) ) ;
#55 = APPROVAL_DATE_TIME ( #136, #150 ) ;
#56 = DATE_AND_TIME ( #151, #89 ) ;
#57 = CC_DESIGN_APPROVAL ( #93, ( #17 ) ) ;
#58 = EDGE_LOOP ( 'NONE', ( #117 ) ) ;
#59 = CARTESIAN_POINT ( 'NONE',  ( 0.0000000000000000000, 0.0000000000000000000, 0.0000000000000000000 ) ) ;
#60 = CC_DESIGN_DATE_AND_TIME_ASSIGNMENT ( #169, #134, ( #17 ) ) ;
#61 = AXIS2_PLACEMENT_3D ( 'NONE', #106, #183, #92 ) ;
#62 = DIRECTION ( 'NONE',  ( 0.0000000000000000000, 1.000000000000000000, 0.0000000000000000000 ) ) ;
#63 = DIRECTION ( 'NONE',  ( -4.275831445896958607E-31, -1.000000000000000000, -1.224646799147353207E-16 ) ) ;
#64 = CARTESIAN_POINT ( 'NONE',  ( 1.370749229779127603E-15, -4.807941082219626102E-17, 0.3925981830489494451 ) ) ;
#65 = VERTEX_POINT ( 'NONE', #184 ) ;
#66 = COORDINATED_UNIVERSAL_TIME_OFFSET ( 1, 0, .AHEAD. ) ;
#67 = CALENDAR_DATE ( 2021, 8, 10 ) ;
#68 = APPROVAL_STATUS ( 'not_yet_approved' ) ;
#69 = PRODUCT_DEFINITION_SHAPE ( 'NONE', 'NONE',  #17 ) ;
#70 = COORDINATED_UNIVERSAL_TIME_OFFSET ( 1, 0, .AHEAD. ) ;
#71 = CC_DESIGN_PERSON_AND_ORGANIZATION_ASSIGNMENT ( #79, #152, ( #174 ) ) ;
#72 = DIRECTION ( 'NONE',  ( -4.275831445896958607E-31, -1.000000000000000000, -1.224646799147353207E-16 ) ) ;
#73 = FACE_OUTER_BOUND ( 'NONE', #88, .T. ) ;
#74 = ORIENTED_EDGE ( 'NONE', *, *, #39, .T. ) ;
#75 = ORIENTED_EDGE ( 'NONE', *, *, #39, .F. ) ;
#76 = CIRCLE ( 'NONE', #99, 0.5500000000000000444 ) ;
#77 = PLANE ( 'NONE',  #168 ) ;
#78 = CARTESIAN_POINT ( 'NONE',  ( 3.910459099504309989E-14, -2.073431719650264472E-31, 11.20000000000000107 ) ) ;
#79 = PERSON_AND_ORGANIZATION ( #51, #159 ) ;
#80 = MANIFOLD_SOLID_BREP ( 'Corps-Déplacer/Copier1[1]', #131 ) ;
#81 = ADVANCED_FACE ( 'NONE', ( #73 ), #105, .F. ) ;
#82 = CC_DESIGN_APPROVAL ( #150, ( #146 ) ) ;
#83 = APPROVAL_DATE_TIME ( #56, #90 ) ;
#84 = DIRECTION ( 'NONE',  ( 4.275831445896958607E-31, 1.000000000000000000, 1.224646799147353207E-16 ) ) ;
#85 = CIRCLE ( 'NONE', #153, 0.6800000000000006040 ) ;
#86 = ORIENTED_EDGE ( 'NONE', *, *, #120, .F. ) ;
#87 = EDGE_LOOP ( 'NONE', ( #116 ) ) ;
#88 = EDGE_LOOP ( 'NONE', ( #86 ) ) ;
#89 = LOCAL_TIME ( 7, 54, 5.000000000000000000, #52 ) ;
#90 = APPROVAL ( #21, 'UNSPECIFIED' ) ;
#91 = DIRECTION ( 'NONE',  ( 5.664499836433055076E-31, 1.000000000000000000, 1.594414959537508899E-16 ) ) ;
#92 = DIRECTION ( 'NONE',  ( 0.0000000000000000000, 1.000000000000000000, 0.0000000000000000000 ) ) ;
#93 = APPROVAL ( #68, 'UNSPECIFIED' ) ;
#94 = AXIS2_PLACEMENT_3D ( 'NONE', #47, #164, #15 ) ;
#95 = CARTESIAN_POINT ( 'NONE',  ( 1.040461438975253740E-13, 0.7499999999999964473, 29.80000000000000071 ) ) ;
#96 = FACE_OUTER_BOUND ( 'NONE', #40, .T. ) ;
#97 = APPROVAL_ROLE ( '' ) ;
#98 = PERSON_AND_ORGANIZATION ( #51, #159 ) ;
#99 = AXIS2_PLACEMENT_3D ( 'NONE', #27, #156, #4 ) ;
#100 = COORDINATED_UNIVERSAL_TIME_OFFSET ( 1, 0, .AHEAD. ) ;
#101 = CARTESIAN_POINT ( 'NONE',  ( 1.047444401652940007E-13, -3.673940397442059178E-15, 30.00000000000000000 ) ) ;
#102 = LOCAL_TIME ( 7, 54, 5.000000000000000000, #66 ) ;
#103 = DIRECTION ( 'NONE',  ( 4.275831445896958607E-31, 1.000000000000000000, 1.224646799147353207E-16 ) ) ;
#104 = ORIENTED_EDGE ( 'NONE', *, *, #143, .T. ) ;
#105 = PLANE ( 'NONE',  #31 ) ;
#106 = CARTESIAN_POINT ( 'NONE',  ( 3.910459099504309989E-14, -1.371604415045035710E-15, 11.20000000000000107 ) ) ;
#107 = APPROVAL_PERSON_ORGANIZATION ( #98, #90, #206 ) ;
#108 =( NAMED_UNIT ( * ) PLANE_ANGLE_UNIT ( ) SI_UNIT ( $, .RADIAN. ) );
#109 = DIRECTION ( 'NONE',  ( 3.491481338843133355E-15, -1.224646799147353207E-16, 1.000000000000000000 ) ) ;
#110 = FACE_OUTER_BOUND ( 'NONE', #157, .T. ) ;
#111 = PERSON_AND_ORGANIZATION ( #51, #159 ) ;
#112 = CONICAL_SURFACE ( 'NONE', #5, 0.5500000000000000444, 0.7853981633974516097 ) ;
#113 = FACE_OUTER_BOUND ( 'NONE', #142, .T. ) ;
#114 = PERSON_AND_ORGANIZATION ( #51, #159 ) ;
#115 = CC_DESIGN_SECURITY_CLASSIFICATION ( #174, ( #146 ) ) ;
#116 = ORIENTED_EDGE ( 'NONE', *, *, #222, .F. ) ;
#117 = ORIENTED_EDGE ( 'NONE', *, *, #222, .T. ) ;
#118 = CIRCLE ( 'NONE', #216, 0.7500000000000001110 ) ;
#119 = DIRECTION ( 'NONE',  ( 0.0000000000000000000, 1.000000000000000000, 0.0000000000000000000 ) ) ;
#120 = EDGE_CURVE ( 'NONE', #145, #145, #76, .T. ) ;
#121 = DIRECTION ( 'NONE',  ( -3.491481338843133355E-15, 1.224646799147353207E-16, -1.000000000000000000 ) ) ;
#122 = APPLICATION_CONTEXT ( 'configuration controlled 3d designs of mechanical parts and assemblies' ) ;
#123 = VERTEX_POINT ( 'NONE', #214 ) ;
#124 = AXIS2_PLACEMENT_3D ( 'NONE', #200, #149, #44 ) ;
#125 = VERTEX_POINT ( 'NONE', #28 ) ;
#126 = PERSON_AND_ORGANIZATION_ROLE ( 'design_owner' ) ;
#127 = CIRCLE ( 'NONE', #124, 0.7499999999999977796 ) ;
#128 = PERSON_AND_ORGANIZATION ( #51, #159 ) ;
#129 = PRODUCT_RELATED_PRODUCT_CATEGORY ( 'detail', '', ( #135 ) ) ;
#130 = SECURITY_CLASSIFICATION_LEVEL ( 'unclassified' ) ;
#131 = CLOSED_SHELL ( 'NONE', ( #133, #213, #162, #34, #81 ) ) ;
#132 = ORIENTED_EDGE ( 'NONE', *, *, #218, .T. ) ;
#133 = ADVANCED_FACE ( 'NONE', ( #204 ), #195, .F. ) ;
#134 = DATE_TIME_ROLE ( 'creation_date' ) ;
#135 = PRODUCT ( '58147', '58147', '', ( #14 ) ) ;
#136 = DATE_AND_TIME ( #205, #53 ) ;
#137 = AXIS2_PLACEMENT_3D ( 'NONE', #59, #144, #103 ) ;
#138 = EDGE_LOOP ( 'NONE', ( #75 ) ) ;
#139 = CC_DESIGN_PERSON_AND_ORGANIZATION_ASSIGNMENT ( #3, #50, ( #17 ) ) ;
#140 = DESIGN_CONTEXT ( 'detailed design', #122, 'design' ) ;
#141 = DIRECTION ( 'NONE',  ( 3.491481338843133355E-15, -1.224646799147353207E-16, 1.000000000000000000 ) ) ;
#142 = EDGE_LOOP ( 'NONE', ( #74 ) ) ;
#143 = EDGE_CURVE ( 'NONE', #46, #46, #85, .T. ) ;
#144 = DIRECTION ( 'NONE',  ( -3.491481338843133355E-15, 1.224646799147353207E-16, -1.000000000000000000 ) ) ;
#145 = VERTEX_POINT ( 'NONE', #16 ) ;
#146 = PRODUCT_DEFINITION_FORMATION_WITH_SPECIFIED_SOURCE ( 'ANY', '', #135, .NOT_KNOWN. ) ;
#147 = PERSON_AND_ORGANIZATION ( #51, #159 ) ;
#148 = ADVANCED_BREP_SHAPE_REPRESENTATION ( '58147', ( #80, #11, #94 ), #36 ) ;
#149 = DIRECTION ( 'NONE',  ( -3.491481338843133355E-15, 1.224646799147353207E-16, -1.000000000000000000 ) ) ;
#150 = APPROVAL ( #1, 'UNSPECIFIED' ) ;
#151 = CALENDAR_DATE ( 2021, 8, 10 ) ;
#152 = PERSON_AND_ORGANIZATION_ROLE ( 'classification_officer' ) ;
#153 = AXIS2_PLACEMENT_3D ( 'NONE', #176, #54, #42 ) ;
#154 = SHAPE_DEFINITION_REPRESENTATION ( #69, #148 ) ;
#155 = FACE_OUTER_BOUND ( 'NONE', #138, .T. ) ;
#156 = DIRECTION ( 'NONE',  ( -3.491481338843133355E-15, 1.224646799147353207E-16, -1.000000000000000000 ) ) ;
#157 = EDGE_LOOP ( 'NONE', ( #43 ) ) ;
#158 = ORIENTED_EDGE ( 'NONE', *, *, #120, .T. ) ;
#159 = ORGANIZATION ( 'UNSPECIFIED', 'UNSPECIFIED', '' ) ;
#160 = DIRECTION ( 'NONE',  ( -3.491481338843133355E-15, 1.224646799147353207E-16, -1.000000000000000000 ) ) ;
#161 = DIRECTION ( 'NONE',  ( 4.275831445896959482E-31, 1.000000000000000000, 1.224646799147353207E-16 ) ) ;
#162 = ADVANCED_FACE ( 'NONE', ( #26, #113 ), #189, .T. ) ;
#163 = CLOSED_SHELL ( 'NONE', ( #175, #10, #202 ) ) ;
#164 = DIRECTION ( 'NONE',  ( 0.0000000000000000000, 0.0000000000000000000, 1.000000000000000000 ) ) ;
#165 = FACE_BOUND ( 'NONE', #6, .T. ) ;
#166 = DIRECTION ( 'NONE',  ( -3.491481338843133355E-15, 1.224646799147353207E-16, -1.000000000000000000 ) ) ;
#167 = APPROVAL_DATE_TIME ( #19, #93 ) ;
#168 = AXIS2_PLACEMENT_3D ( 'NONE', #78, #13, #63 ) ;
#169 = DATE_AND_TIME ( #191, #102 ) ;
#170 = CIRCLE ( 'NONE', #48, 0.6799999999999989386 ) ;
#171 = CC_DESIGN_DATE_AND_TIME_ASSIGNMENT ( #37, #35, ( #174 ) ) ;
#172 = ORIENTED_EDGE ( 'NONE', *, *, #180, .F. ) ;
#173 = CARTESIAN_POINT ( 'NONE',  ( 1.047444401652940007E-13, 4.124339402320052999E-33, 30.00000000000000000 ) ) ;
#174 = SECURITY_CLASSIFICATION ( '', '', #130 ) ;
#175 = ADVANCED_FACE ( 'NONE', ( #197 ), #9, .T. ) ;
#176 = CARTESIAN_POINT ( 'NONE',  ( 3.910459099504309989E-14, -1.371604415045035710E-15, 11.20000000000000107 ) ) ;
#177 = UNCERTAINTY_MEASURE_WITH_UNIT (LENGTH_MEASURE( 1.000000000000000082E-05 ), #33, 'distance_accuracy_value', 'NONE');
#178 = EDGE_LOOP ( 'NONE', ( #132 ) ) ;
#179 = EDGE_LOOP ( 'NONE', ( #158 ) ) ;
#180 = EDGE_CURVE ( 'NONE', #123, #123, #127, .T. ) ;
#181 = CARTESIAN_POINT ( 'NONE',  ( 3.910459099504309989E-14, 0.6799999999999991607, 11.20000000000000107 ) ) ;
#182 =( NAMED_UNIT ( * ) SI_UNIT ( $, .STERADIAN. ) SOLID_ANGLE_UNIT ( ) );
#183 = DIRECTION ( 'NONE',  ( -3.491481338843133355E-15, 1.224646799147353207E-16, -1.000000000000000000 ) ) ;
#184 = CARTESIAN_POINT ( 'NONE',  ( 1.370749229779127998E-15, 0.6799999999999989386, 0.3925981830489495561 ) ) ;
#185 = PERSON_AND_ORGANIZATION_ROLE ( 'creator' ) ;
#186 = APPLICATION_CONTEXT ( 'configuration controlled 3d designs of mechanical parts and assemblies' ) ;
#187 = AXIS2_PLACEMENT_3D ( 'NONE', #196, #141, #72 ) ;
#188 = PERSON_AND_ORGANIZATION ( #51, #159 ) ;
#189 = CYLINDRICAL_SURFACE ( 'NONE', #22, 0.7499999999999988898 ) ;
#190 = PERSON_AND_ORGANIZATION_ROLE ( 'design_supplier' ) ;
#191 = CALENDAR_DATE ( 2021, 8, 10 ) ;
#192 = CC_DESIGN_PERSON_AND_ORGANIZATION_ASSIGNMENT ( #147, #126, ( #135 ) ) ;
#193 = APPROVAL_PERSON_ORGANIZATION ( #188, #93, #97 ) ;
#194 = FACE_OUTER_BOUND ( 'NONE', #87, .T. ) ;
#195 = PLANE ( 'NONE',  #187 ) ;
#196 = CARTESIAN_POINT ( 'NONE',  ( 3.910459099504309989E-14, -2.073431719650264472E-31, 11.20000000000000107 ) ) ;
#197 = FACE_OUTER_BOUND ( 'NONE', #58, .T. ) ;
#198 = CC_DESIGN_PERSON_AND_ORGANIZATION_ASSIGNMENT ( #111, #190, ( #146 ) ) ;
#199 = DIRECTION ( 'NONE',  ( 0.0000000000000000000, -1.000000000000000000, 0.0000000000000000000 ) ) ;
#200 = CARTESIAN_POINT ( 'NONE',  ( 3.952791061012192525E-14, -1.386452468387183963E-15, 11.32124355652981862 ) ) ;
#201 = CALENDAR_DATE ( 2021, 8, 10 ) ;
#202 = ADVANCED_FACE ( 'NONE', ( #96 ), #77, .T. ) ;
#203 = AXIS2_PLACEMENT_3D ( 'NONE', #215, #217, #199 ) ;
#204 = FACE_OUTER_BOUND ( 'NONE', #211, .T. ) ;
#205 = CALENDAR_DATE ( 2021, 8, 10 ) ;
#206 = APPROVAL_ROLE ( '' ) ;
#207 = CONICAL_SURFACE ( 'NONE', #203, 0.7499999999999977796, 0.5235987755982967062 ) ;
#208 = APPROVAL_PERSON_ORGANIZATION ( #114, #150, #220 ) ;
#209 = DIRECTION ( 'NONE',  ( -3.491481338843133355E-15, 1.224646799147353207E-16, -1.000000000000000000 ) ) ;
#210 = CYLINDRICAL_SURFACE ( 'NONE', #137, 0.6799999999999998268 ) ;
#211 = EDGE_LOOP ( 'NONE', ( #104 ) ) ;
#212 = FACE_BOUND ( 'NONE', #179, .T. ) ;
#213 = ADVANCED_FACE ( 'NONE', ( #165, #110 ), #207, .T. ) ;
#214 = CARTESIAN_POINT ( 'NONE',  ( 3.952791061012192525E-14, 0.7499999999999963363, 11.32124355652981862 ) ) ;
#215 = CARTESIAN_POINT ( 'NONE',  ( 3.952791061012192525E-14, -1.386452468387183963E-15, 11.32124355652981862 ) ) ;
#216 = AXIS2_PLACEMENT_3D ( 'NONE', #12, #121, #119 ) ;
#217 = DIRECTION ( 'NONE',  ( 3.491481338843133355E-15, -1.224646799147353207E-16, 1.000000000000000000 ) ) ;
#218 = EDGE_CURVE ( 'NONE', #125, #125, #38, .T. ) ;
#219 = CARTESIAN_POINT ( 'NONE',  ( 1.370749229779127603E-15, -4.807941082219626102E-17, 0.3925981830489494451 ) ) ;
#220 = APPROVAL_ROLE ( '' ) ;
#221 = CC_DESIGN_APPROVAL ( #90, ( #174 ) ) ;
#222 = EDGE_CURVE ( 'NONE', #65, #65, #170, .T. ) ;
#223 = APPLICATION_PROTOCOL_DEFINITION ( 'international standard', 'config_control_design', 1994, #122 ) ;
ENDSEC;
END-ISO-10303-21;
