ISO-10303-21;
HEADER;
FILE_DESCRIPTION (( 'STEP AP203' ),
    '1' );
FILE_NAME ('58056.step',
    '2021-10-08T05:16:02',
    ( '' ),
    ( '' ),
    'SwSTEP 2.0',
    'SolidWorks 2019',
    '' );
FILE_SCHEMA (( 'CONFIG_CONTROL_DESIGN' ));
ENDSEC;

DATA;
#1 = PLANE ( 'NONE',  #62 ) ;
#2 = FACE_OUTER_BOUND ( 'NONE', #11, .T. ) ;
#3 = PRODUCT_DEFINITION_FORMATION_WITH_SPECIFIED_SOURCE ( 'ANY', '', #31, .NOT_KNOWN. ) ;
#4 = CARTESIAN_POINT ( 'NONE',  ( 2.024467361230152477E-15, -7.100875626418987835E-17, 0.5798304973615979740 ) ) ;
#5 = ADVANCED_FACE ( 'NONE', ( #217 ), #58, .F. ) ;
#6 = CARTESIAN_POINT ( 'NONE',  ( 4.189777606611760026E-14, 0.9649999999999936406, 12.00000000000000000 ) ) ;
#7 = AXIS2_PLACEMENT_3D ( 'NONE', #85, #157, #223 ) ;
#8 = APPROVAL_ROLE ( '' ) ;
#9 = CC_DESIGN_PERSON_AND_ORGANIZATION_ASSIGNMENT ( #213, #54, ( #3 ) ) ;
#10 = APPLICATION_PROTOCOL_DEFINITION ( 'international standard', 'config_control_design', 1994, #69 ) ;
#11 = EDGE_LOOP ( 'NONE', ( #168 ) ) ;
#12 = ORIENTED_EDGE ( 'NONE', *, *, #110, .F. ) ;
#13 = EDGE_LOOP ( 'NONE', ( #134 ) ) ;
#14 = PRODUCT_DEFINITION ( 'UNKNOWN', '', #3, #36 ) ;
#15 = ORIENTED_EDGE ( 'NONE', *, *, #143, .T. ) ;
#16 = VERTEX_POINT ( 'NONE', #82 ) ;
#17 = CARTESIAN_POINT ( 'NONE',  ( 4.189777606611760026E-14, -1.469576158976823947E-15, 12.00000000000000000 ) ) ;
#18 = DIRECTION ( 'NONE',  ( -3.491481338843133355E-15, 1.224646799147353207E-16, -1.000000000000000000 ) ) ;
#19 = DIRECTION ( 'NONE',  ( 4.275831445896958607E-31, 1.000000000000000000, 1.224646799147352961E-16 ) ) ;
#20 = APPROVAL_DATE_TIME ( #130, #40 ) ;
#21 = CALENDAR_DATE ( 2021, 8, 10 ) ;
#22 = DATE_AND_TIME ( #21, #125 ) ;
#23 =( NAMED_UNIT ( * ) PLANE_ANGLE_UNIT ( ) SI_UNIT ( $, .RADIAN. ) );
#24 =( LENGTH_UNIT ( ) NAMED_UNIT ( * ) SI_UNIT ( .MILLI., .METRE. ) );
#25 = CALENDAR_DATE ( 2021, 8, 10 ) ;
#26 = LOCAL_TIME ( 7, 16, 2.000000000000000000, #149 ) ;
#27 = EDGE_LOOP ( 'NONE', ( #15 ) ) ;
#28 = DIRECTION ( 'NONE',  ( 3.491481338843133355E-15, -1.224646799147353207E-16, 1.000000000000000000 ) ) ;
#29 = DIRECTION ( 'NONE',  ( 0.0000000000000000000, 1.000000000000000000, 0.0000000000000000000 ) ) ;
#30 = AXIS2_PLACEMENT_3D ( 'NONE', #17, #205, #187 ) ;
#31 = PRODUCT ( '58056', '58056', '', ( #72 ) ) ;
#32 = DIRECTION ( 'NONE',  ( -3.491481338843133355E-15, 1.224646799147353207E-16, -1.000000000000000000 ) ) ;
#33 = DIRECTION ( 'NONE',  ( -4.275831445896958607E-31, -1.000000000000000000, -1.224646799147353207E-16 ) ) ;
#34 = DIRECTION ( 'NONE',  ( 3.491481338843133355E-15, -1.224646799147353207E-16, 1.000000000000000000 ) ) ;
#35 = APPROVAL_DATE_TIME ( #56, #158 ) ;
#36 = DESIGN_CONTEXT ( 'detailed design', #179, 'design' ) ;
#37 = PERSON_AND_ORGANIZATION_ROLE ( 'classification_officer' ) ;
#38 = PERSON_AND_ORGANIZATION_ROLE ( 'design_owner' ) ;
#39 = PERSON_AND_ORGANIZATION ( #68, #218 ) ;
#40 = APPROVAL ( #163, 'UNSPECIFIED' ) ;
#41 = APPROVAL_STATUS ( 'not_yet_approved' ) ;
#42 = ORIENTED_EDGE ( 'NONE', *, *, #91, .F. ) ;
#43 = LOCAL_TIME ( 7, 16, 2.000000000000000000, #112 ) ;
#44 = FACE_OUTER_BOUND ( 'NONE', #200, .T. ) ;
#45 = CC_DESIGN_DATE_AND_TIME_ASSIGNMENT ( #22, #195, ( #14 ) ) ;
#46 = DIRECTION ( 'NONE',  ( 4.275831445896958607E-31, 1.000000000000000000, 1.224646799147353207E-16 ) ) ;
#47 = CLOSED_SHELL ( 'NONE', ( #209, #99, #132 ) ) ;
#48 = FACE_OUTER_BOUND ( 'NONE', #27, .T. ) ;
#49 = APPROVAL_PERSON_ORGANIZATION ( #126, #158, #192 ) ;
#50 = EDGE_CURVE ( 'NONE', #174, #174, #79, .T. ) ;
#51 = CARTESIAN_POINT ( 'NONE',  ( 0.0000000000000000000, 0.0000000000000000000, 0.0000000000000000000 ) ) ;
#52 = APPLICATION_PROTOCOL_DEFINITION ( 'international standard', 'config_control_design', 1994, #179 ) ;
#53 = AXIS2_PLACEMENT_3D ( 'NONE', #208, #161, #145 ) ;
#54 = PERSON_AND_ORGANIZATION_ROLE ( 'design_supplier' ) ;
#55 = DATE_TIME_ROLE ( 'classification_date' ) ;
#56 = DATE_AND_TIME ( #176, #26 ) ;
#57 = ADVANCED_FACE ( 'NONE', ( #156, #142 ), #215, .T. ) ;
#58 = PLANE ( 'NONE',  #177 ) ;
#59 = CC_DESIGN_APPROVAL ( #40, ( #3 ) ) ;
#60 = ORIENTED_EDGE ( 'NONE', *, *, #197, .F. ) ;
#61 = EDGE_LOOP ( 'NONE', ( #76 ) ) ;
#62 = AXIS2_PLACEMENT_3D ( 'NONE', #64, #170, #186 ) ;
#63 = FACE_OUTER_BOUND ( 'NONE', #199, .T. ) ;
#64 = CARTESIAN_POINT ( 'NONE',  ( 4.189777606611760026E-14, 7.236340951343403567E-33, 12.00000000000000000 ) ) ;
#65 = CARTESIAN_POINT ( 'NONE',  ( 0.0000000000000000000, 0.0000000000000000000, 0.0000000000000000000 ) ) ;
#66 = CC_DESIGN_DATE_AND_TIME_ASSIGNMENT ( #109, #55, ( #74 ) ) ;
#67 = FACE_OUTER_BOUND ( 'NONE', #115, .T. ) ;
#68 = PERSON ( 'UNSPECIFIED', 'UNSPECIFIED', 'UNSPECIFIED', ('UNSPECIFIED'), ('UNSPECIFIED'), ('UNSPECIFIED') ) ;
#69 = APPLICATION_CONTEXT ( 'configuration controlled 3d designs of mechanical parts and assemblies' ) ;
#70 = DIRECTION ( 'NONE',  ( -3.491481338843133355E-15, 1.224646799147353207E-16, -1.000000000000000000 ) ) ;
#71 =( NAMED_UNIT ( * ) SI_UNIT ( $, .STERADIAN. ) SOLID_ANGLE_UNIT ( ) );
#72 = MECHANICAL_CONTEXT ( 'NONE', #69, 'mechanical' ) ;
#73 = AXIS2_PLACEMENT_3D ( 'NONE', #140, #137, #29 ) ;
#74 = SECURITY_CLASSIFICATION ( '', '', #175 ) ;
#75 = COORDINATED_UNIVERSAL_TIME_OFFSET ( 1, 0, .AHEAD. ) ;
#76 = ORIENTED_EDGE ( 'NONE', *, *, #114, .F. ) ;
#77 = APPROVAL_ROLE ( '' ) ;
#78 = ORIENTED_EDGE ( 'NONE', *, *, #110, .T. ) ;
#79 = CIRCLE ( 'NONE', #96, 0.9999999999999970024 ) ;
#80 = CC_DESIGN_PERSON_AND_ORGANIZATION_ASSIGNMENT ( #39, #194, ( #14 ) ) ;
#81 = FACE_OUTER_BOUND ( 'NONE', #13, .T. ) ;
#82 = CARTESIAN_POINT ( 'NONE',  ( 1.326762908760390423E-13, 0.7999999999999949374, 38.00000000000000000 ) ) ;
#83 = CYLINDRICAL_SURFACE ( 'NONE', #191, 0.9649999999999943068 ) ;
#84 = CIRCLE ( 'NONE', #30, 0.9649999999999951950 ) ;
#85 = CARTESIAN_POINT ( 'NONE',  ( 4.210943587365703819E-14, -1.477000185647898862E-15, 12.06062177826491499 ) ) ;
#86 = CYLINDRICAL_SURFACE ( 'NONE', #201, 0.9999999999999983347 ) ;
#87 = VERTEX_POINT ( 'NONE', #162 ) ;
#88 = PERSON_AND_ORGANIZATION ( #68, #218 ) ;
#89 = COORDINATED_UNIVERSAL_TIME_OFFSET ( 1, 0, .AHEAD. ) ;
#90 = AXIS2_PLACEMENT_3D ( 'NONE', #121, #28, #33 ) ;
#91 = EDGE_CURVE ( 'NONE', #153, #153, #128, .T. ) ;
#92 = VERTEX_POINT ( 'NONE', #6 ) ;
#93 = CONICAL_SURFACE ( 'NONE', #7, 0.9999999999999970024, 0.5235987755982935976 ) ;
#94 = DATE_AND_TIME ( #25, #196 ) ;
#95 = EDGE_LOOP ( 'NONE', ( #78 ) ) ;
#96 = AXIS2_PLACEMENT_3D ( 'NONE', #171, #154, #119 ) ;
#97 = CIRCLE ( 'NONE', #159, 0.9649999999999935296 ) ;
#98 = CC_DESIGN_APPROVAL ( #158, ( #14 ) ) ;
#99 = ADVANCED_FACE ( 'NONE', ( #120, #48 ), #83, .T. ) ;
#100 = CARTESIAN_POINT ( 'NONE',  ( 4.210943587365703819E-14, 0.9999999999999954481, 12.06062177826491499 ) ) ;
#101 = DIRECTION ( 'NONE',  ( -3.491481338843133355E-15, 1.224646799147353207E-16, -1.000000000000000000 ) ) ;
#102 = DIRECTION ( 'NONE',  ( -3.491481338843133355E-15, 1.224646799147353207E-16, -1.000000000000000000 ) ) ;
#103 = DIRECTION ( 'NONE',  ( -3.491481338843133355E-15, 1.224646799147353207E-16, -1.000000000000000000 ) ) ;
#104 = AXIS2_PLACEMENT_3D ( 'NONE', #207, #101, #118 ) ;
#105 = CIRCLE ( 'NONE', #135, 0.9649999999999951950 ) ;
#106 = DIRECTION ( 'NONE',  ( -3.991564651579789868E-31, -1.000000000000000000, -1.123525567342499084E-16 ) ) ;
#107 = ADVANCED_FACE ( 'NONE', ( #63, #2 ), #86, .T. ) ;
#108 = PERSON_AND_ORGANIZATION ( #68, #218 ) ;
#109 = DATE_AND_TIME ( #214, #141 ) ;
#110 = EDGE_CURVE ( 'NONE', #16, #16, #221, .T. ) ;
#111 = CONICAL_SURFACE ( 'NONE', #222, 0.9649999999999935296, 1.029744258676649871 ) ;
#112 = COORDINATED_UNIVERSAL_TIME_OFFSET ( 1, 0, .AHEAD. ) ;
#113 = ORIENTED_EDGE ( 'NONE', *, *, #114, .T. ) ;
#114 = EDGE_CURVE ( 'NONE', #92, #92, #105, .T. ) ;
#115 = EDGE_LOOP ( 'NONE', ( #113 ) ) ;
#116 = PERSON_AND_ORGANIZATION ( #68, #218 ) ;
#117 = AXIS2_PLACEMENT_3D ( 'NONE', #203, #32, #206 ) ;
#118 = DIRECTION ( 'NONE',  ( 0.0000000000000000000, 1.000000000000000000, 0.0000000000000000000 ) ) ;
#119 = DIRECTION ( 'NONE',  ( 0.0000000000000000000, 1.000000000000000000, 0.0000000000000000000 ) ) ;
#120 = FACE_OUTER_BOUND ( 'NONE', #219, .T. ) ;
#121 = CARTESIAN_POINT ( 'NONE',  ( 4.189777606611760026E-14, 7.236340951343403567E-33, 12.00000000000000000 ) ) ;
#122 = FACE_OUTER_BOUND ( 'NONE', #183, .T. ) ;
#123 = ADVANCED_FACE ( 'NONE', ( #185, #81 ), #93, .T. ) ;
#124 = APPROVAL_STATUS ( 'not_yet_approved' ) ;
#125 = LOCAL_TIME ( 7, 16, 2.000000000000000000, #89 ) ;
#126 = PERSON_AND_ORGANIZATION ( #68, #218 ) ;
#127 = COORDINATED_UNIVERSAL_TIME_OFFSET ( 1, 0, .AHEAD. ) ;
#128 = CIRCLE ( 'NONE', #117, 0.9999999999999993339 ) ;
#129 = APPROVAL_PERSON_ORGANIZATION ( #116, #184, #77 ) ;
#130 = DATE_AND_TIME ( #147, #43 ) ;
#131 = PRODUCT_RELATED_PRODUCT_CATEGORY ( 'detail', '', ( #31 ) ) ;
#132 = ADVANCED_FACE ( 'NONE', ( #44 ), #1, .T. ) ;
#133 = ORIENTED_EDGE ( 'NONE', *, *, #197, .T. ) ;
#134 = ORIENTED_EDGE ( 'NONE', *, *, #50, .T. ) ;
#135 = AXIS2_PLACEMENT_3D ( 'NONE', #204, #102, #144 ) ;
#136 =( GEOMETRIC_REPRESENTATION_CONTEXT ( 3 ) GLOBAL_UNCERTAINTY_ASSIGNED_CONTEXT ( ( #212 ) ) GLOBAL_UNIT_ASSIGNED_CONTEXT ( ( #24, #23, #71 ) ) REPRESENTATION_CONTEXT ( 'NONE', 'WORKASPACE' ) );
#137 = DIRECTION ( 'NONE',  ( -3.491481338843133355E-15, 1.224646799147353207E-16, -1.000000000000000000 ) ) ;
#138 = DIRECTION ( 'NONE',  ( -3.491481338843133355E-15, 1.224646799147353207E-16, -1.000000000000000000 ) ) ;
#139 = CC_DESIGN_PERSON_AND_ORGANIZATION_ASSIGNMENT ( #108, #148, ( #3 ) ) ;
#140 = CARTESIAN_POINT ( 'NONE',  ( 1.326762908760390423E-13, -4.653657836759941941E-15, 38.00000000000000000 ) ) ;
#141 = LOCAL_TIME ( 7, 16, 2.000000000000000000, #127 ) ;
#142 = FACE_BOUND ( 'NONE', #95, .T. ) ;
#143 = EDGE_CURVE ( 'NONE', #87, #87, #84, .T. ) ;
#144 = DIRECTION ( 'NONE',  ( 0.0000000000000000000, 1.000000000000000000, 0.0000000000000000000 ) ) ;
#145 = DIRECTION ( 'NONE',  ( 1.000000000000000000, 0.0000000000000000000, 0.0000000000000000000 ) ) ;
#146 = CC_DESIGN_SECURITY_CLASSIFICATION ( #74, ( #3 ) ) ;
#147 = CALENDAR_DATE ( 2021, 8, 10 ) ;
#148 = PERSON_AND_ORGANIZATION_ROLE ( 'creator' ) ;
#149 = COORDINATED_UNIVERSAL_TIME_OFFSET ( 1, 0, .AHEAD. ) ;
#150 = ORIENTED_EDGE ( 'NONE', *, *, #143, .F. ) ;
#151 = CARTESIAN_POINT ( 'NONE',  ( 1.326762908760390423E-13, 5.999039130647358587E-33, 38.00000000000000000 ) ) ;
#152 = CLOSED_SHELL ( 'NONE', ( #165, #123, #107, #57, #5 ) ) ;
#153 = VERTEX_POINT ( 'NONE', #169 ) ;
#154 = DIRECTION ( 'NONE',  ( -3.491481338843133355E-15, 1.224646799147353207E-16, -1.000000000000000000 ) ) ;
#155 = CC_DESIGN_PERSON_AND_ORGANIZATION_ASSIGNMENT ( #211, #38, ( #31 ) ) ;
#156 = FACE_OUTER_BOUND ( 'NONE', #180, .T. ) ;
#157 = DIRECTION ( 'NONE',  ( 3.491481338843133355E-15, -1.224646799147353207E-16, 1.000000000000000000 ) ) ;
#158 = APPROVAL ( #124, 'UNSPECIFIED' ) ;
#159 = AXIS2_PLACEMENT_3D ( 'NONE', #4, #70, #173 ) ;
#160 = PLANE ( 'NONE',  #90 ) ;
#161 = DIRECTION ( 'NONE',  ( 0.0000000000000000000, 0.0000000000000000000, 1.000000000000000000 ) ) ;
#162 = CARTESIAN_POINT ( 'NONE',  ( 4.189777606611760026E-14, 0.9649999999999936406, 12.00000000000000000 ) ) ;
#163 = APPROVAL_STATUS ( 'not_yet_approved' ) ;
#164 = MANIFOLD_SOLID_BREP ( 'Corps-Déplacer/Copier1[1]', #152 ) ;
#165 = ADVANCED_FACE ( 'NONE', ( #67 ), #160, .F. ) ;
#166 = SHAPE_DEFINITION_REPRESENTATION ( #172, #220 ) ;
#167 = ORIENTED_EDGE ( 'NONE', *, *, #50, .F. ) ;
#168 = ORIENTED_EDGE ( 'NONE', *, *, #91, .T. ) ;
#169 = CARTESIAN_POINT ( 'NONE',  ( 1.319779946082704535E-13, 0.9999999999999947820, 37.79999999999999716 ) ) ;
#170 = DIRECTION ( 'NONE',  ( 3.491481338843133355E-15, -1.224646799147353207E-16, 1.000000000000000000 ) ) ;
#171 = CARTESIAN_POINT ( 'NONE',  ( 4.210943587365703819E-14, -1.477000185647898862E-15, 12.06062177826491499 ) ) ;
#172 = PRODUCT_DEFINITION_SHAPE ( 'NONE', 'NONE',  #14 ) ;
#173 = DIRECTION ( 'NONE',  ( 3.991564651579789868E-31, 1.000000000000000000, 1.123525567342499084E-16 ) ) ;
#174 = VERTEX_POINT ( 'NONE', #100 ) ;
#175 = SECURITY_CLASSIFICATION_LEVEL ( 'unclassified' ) ;
#176 = CALENDAR_DATE ( 2021, 8, 10 ) ;
#177 = AXIS2_PLACEMENT_3D ( 'NONE', #151, #18, #188 ) ;
#178 = VERTEX_POINT ( 'NONE', #216 ) ;
#179 = APPLICATION_CONTEXT ( 'configuration controlled 3d designs of mechanical parts and assemblies' ) ;
#180 = EDGE_LOOP ( 'NONE', ( #42 ) ) ;
#181 = EDGE_LOOP ( 'NONE', ( #12 ) ) ;
#182 = APPROVAL_DATE_TIME ( #94, #184 ) ;
#183 = EDGE_LOOP ( 'NONE', ( #133 ) ) ;
#184 = APPROVAL ( #41, 'UNSPECIFIED' ) ;
#185 = FACE_BOUND ( 'NONE', #61, .T. ) ;
#186 = DIRECTION ( 'NONE',  ( -4.275831445896958607E-31, -1.000000000000000000, -1.224646799147353207E-16 ) ) ;
#187 = DIRECTION ( 'NONE',  ( 0.0000000000000000000, 1.000000000000000000, 0.0000000000000000000 ) ) ;
#188 = DIRECTION ( 'NONE',  ( 4.275831445896958607E-31, 1.000000000000000000, 1.224646799147353207E-16 ) ) ;
#189 = MANIFOLD_SOLID_BREP ( 'Corps-Déplacer/Copier1[2]', #47 ) ;
#190 = CARTESIAN_POINT ( 'NONE',  ( 2.024467361230152477E-15, -7.100875626418987835E-17, 0.5798304973615979740 ) ) ;
#191 = AXIS2_PLACEMENT_3D ( 'NONE', #51, #103, #19 ) ;
#192 = APPROVAL_ROLE ( '' ) ;
#193 = CC_DESIGN_PERSON_AND_ORGANIZATION_ASSIGNMENT ( #88, #37, ( #74 ) ) ;
#194 = PERSON_AND_ORGANIZATION_ROLE ( 'creator' ) ;
#195 = DATE_TIME_ROLE ( 'creation_date' ) ;
#196 = LOCAL_TIME ( 7, 16, 2.000000000000000000, #75 ) ;
#197 = EDGE_CURVE ( 'NONE', #178, #178, #97, .T. ) ;
#198 = PERSON_AND_ORGANIZATION ( #68, #218 ) ;
#199 = EDGE_LOOP ( 'NONE', ( #167 ) ) ;
#200 = EDGE_LOOP ( 'NONE', ( #150 ) ) ;
#201 = AXIS2_PLACEMENT_3D ( 'NONE', #65, #138, #46 ) ;
#202 = CC_DESIGN_APPROVAL ( #184, ( #74 ) ) ;
#203 = CARTESIAN_POINT ( 'NONE',  ( 1.319779946082704535E-13, -4.629164900776995227E-15, 37.79999999999999716 ) ) ;
#204 = CARTESIAN_POINT ( 'NONE',  ( 4.189777606611760026E-14, -1.469576158976823947E-15, 12.00000000000000000 ) ) ;
#205 = DIRECTION ( 'NONE',  ( -3.491481338843133355E-15, 1.224646799147353207E-16, -1.000000000000000000 ) ) ;
#206 = DIRECTION ( 'NONE',  ( 0.0000000000000000000, 1.000000000000000000, 0.0000000000000000000 ) ) ;
#207 = CARTESIAN_POINT ( 'NONE',  ( 1.326762908760390423E-13, -4.653657836759941941E-15, 38.00000000000000000 ) ) ;
#208 = CARTESIAN_POINT ( 'NONE',  ( 0.0000000000000000000, 0.0000000000000000000, 0.0000000000000000000 ) ) ;
#209 = ADVANCED_FACE ( 'NONE', ( #122 ), #111, .T. ) ;
#210 = APPROVAL_PERSON_ORGANIZATION ( #198, #40, #8 ) ;
#211 = PERSON_AND_ORGANIZATION ( #68, #218 ) ;
#212 = UNCERTAINTY_MEASURE_WITH_UNIT (LENGTH_MEASURE( 1.000000000000000082E-05 ), #24, 'distance_accuracy_value', 'NONE');
#213 = PERSON_AND_ORGANIZATION ( #68, #218 ) ;
#214 = CALENDAR_DATE ( 2021, 8, 10 ) ;
#215 = CONICAL_SURFACE ( 'NONE', #104, 0.7999999999999996003, 0.7853981633974507215 ) ;
#216 = CARTESIAN_POINT ( 'NONE',  ( 2.024467361230152872E-15, 0.9649999999999934186, 0.5798304973615980851 ) ) ;
#217 = FACE_OUTER_BOUND ( 'NONE', #181, .T. ) ;
#218 = ORGANIZATION ( 'UNSPECIFIED', 'UNSPECIFIED', '' ) ;
#219 = EDGE_LOOP ( 'NONE', ( #60 ) ) ;
#220 = ADVANCED_BREP_SHAPE_REPRESENTATION ( '58056', ( #164, #189, #53 ), #136 ) ;
#221 = CIRCLE ( 'NONE', #73, 0.7999999999999996003 ) ;
#222 = AXIS2_PLACEMENT_3D ( 'NONE', #190, #34, #106 ) ;
#223 = DIRECTION ( 'NONE',  ( 0.0000000000000000000, -1.000000000000000000, 0.0000000000000000000 ) ) ;
ENDSEC;
END-ISO-10303-21;
