ISO-10303-21;
HEADER;
FILE_DESCRIPTION (( 'STEP AP203' ),
    '1' );
FILE_NAME ('58054.step',
    '2021-10-08T05:16:01',
    ( '' ),
    ( '' ),
    'SwSTEP 2.0',
    'SolidWorks 2019',
    '' );
FILE_SCHEMA (( 'CONFIG_CONTROL_DESIGN' ));
ENDSEC;

DATA;
#1 = FACE_OUTER_BOUND ( 'NONE', #96, .T. ) ;
#2 = ORIENTED_EDGE ( 'NONE', *, *, #86, .T. ) ;
#3 = DIRECTION ( 'NONE',  ( 3.491481338843133355E-15, -1.224646799147353207E-16, 1.000000000000000000 ) ) ;
#4 = CC_DESIGN_APPROVAL ( #31, ( #220 ) ) ;
#5 = EDGE_LOOP ( 'NONE', ( #173 ) ) ;
#6 = AXIS2_PLACEMENT_3D ( 'NONE', #155, #90, #67 ) ;
#7 = CC_DESIGN_PERSON_AND_ORGANIZATION_ASSIGNMENT ( #53, #55, ( #220 ) ) ;
#8 = ADVANCED_FACE ( 'NONE', ( #12 ), #188, .T. ) ;
#9 = AXIS2_PLACEMENT_3D ( 'NONE', #45, #85, #49 ) ;
#10 = EDGE_CURVE ( 'NONE', #169, #169, #139, .T. ) ;
#11 = FACE_OUTER_BOUND ( 'NONE', #50, .T. ) ;
#12 = FACE_OUTER_BOUND ( 'NONE', #203, .T. ) ;
#13 = DIRECTION ( 'NONE',  ( -4.275831445896958607E-31, -1.000000000000000000, -1.224646799147353207E-16 ) ) ;
#14 = AXIS2_PLACEMENT_3D ( 'NONE', #189, #223, #27 ) ;
#15 = DIRECTION ( 'NONE',  ( 4.275831445896958607E-31, 1.000000000000000000, 1.224646799147353207E-16 ) ) ;
#16 = DIRECTION ( 'NONE',  ( 0.0000000000000000000, 1.000000000000000000, 0.0000000000000000000 ) ) ;
#17 = CALENDAR_DATE ( 2021, 8, 10 ) ;
#18 = AXIS2_PLACEMENT_3D ( 'NONE', #106, #171, #16 ) ;
#19 = PERSON_AND_ORGANIZATION ( #48, #73 ) ;
#20 = ADVANCED_FACE ( 'NONE', ( #168, #119 ), #51, .T. ) ;
#21 = APPROVAL_STATUS ( 'not_yet_approved' ) ;
#22 = CLOSED_SHELL ( 'NONE', ( #199, #217, #127, #162, #113 ) ) ;
#23 = AXIS2_PLACEMENT_3D ( 'NONE', #170, #25, #102 ) ;
#24 = DESIGN_CONTEXT ( 'detailed design', #137, 'design' ) ;
#25 = DIRECTION ( 'NONE',  ( -3.491481338843133355E-15, 1.224646799147353207E-16, -1.000000000000000000 ) ) ;
#26 = AXIS2_PLACEMENT_3D ( 'NONE', #190, #88, #118 ) ;
#27 = DIRECTION ( 'NONE',  ( 4.377113509971021706E-31, 1.000000000000000000, 1.232047923278991074E-16 ) ) ;
#28 = ORIENTED_EDGE ( 'NONE', *, *, #135, .T. ) ;
#29 = PLANE ( 'NONE',  #196 ) ;
#30 = FACE_OUTER_BOUND ( 'NONE', #167, .T. ) ;
#31 = APPROVAL ( #178, 'UNSPECIFIED' ) ;
#32 = LOCAL_TIME ( 7, 16, 1.000000000000000000, #129 ) ;
#33 = DIRECTION ( 'NONE',  ( 4.275831445896958607E-31, 1.000000000000000000, 1.224646799147353207E-16 ) ) ;
#34 = PRODUCT ( '58054', '58054', '', ( #211 ) ) ;
#35 = CARTESIAN_POINT ( 'NONE',  ( 0.0000000000000000000, 0.0000000000000000000, 0.0000000000000000000 ) ) ;
#36 = EDGE_CURVE ( 'NONE', #191, #191, #98, .T. ) ;
#37 =( LENGTH_UNIT ( ) NAMED_UNIT ( * ) SI_UNIT ( .MILLI., .METRE. ) );
#38 = AXIS2_PLACEMENT_3D ( 'NONE', #153, #105, #15 ) ;
#39 = PERSON_AND_ORGANIZATION ( #48, #73 ) ;
#40 = PERSON_AND_ORGANIZATION_ROLE ( 'design_supplier' ) ;
#41 = AXIS2_PLACEMENT_3D ( 'NONE', #193, #71, #33 ) ;
#42 = APPROVAL ( #21, 'UNSPECIFIED' ) ;
#43 = EDGE_CURVE ( 'NONE', #89, #89, #47, .T. ) ;
#44 = DIRECTION ( 'NONE',  ( -3.491481338843133355E-15, 1.224646799147353207E-16, -1.000000000000000000 ) ) ;
#45 = CARTESIAN_POINT ( 'NONE',  ( 4.262346683482421392E-14, -1.495029964706222445E-15, 12.20784609690827338 ) ) ;
#46 = LOCAL_TIME ( 7, 16, 1.000000000000000000, #159 ) ;
#47 = CIRCLE ( 'NONE', #14, 0.8799999999999937872 ) ;
#48 = PERSON ( 'UNSPECIFIED', 'UNSPECIFIED', 'UNSPECIFIED', ('UNSPECIFIED'), ('UNSPECIFIED'), ('UNSPECIFIED') ) ;
#49 = DIRECTION ( 'NONE',  ( 0.0000000000000000000, -1.000000000000000000, 0.0000000000000000000 ) ) ;
#50 = EDGE_LOOP ( 'NONE', ( #87 ) ) ;
#51 = CYLINDRICAL_SURFACE ( 'NONE', #41, 0.8799999999999948974 ) ;
#52 = FACE_BOUND ( 'NONE', #149, .T. ) ;
#53 = PERSON_AND_ORGANIZATION ( #48, #73 ) ;
#54 = PERSON_AND_ORGANIZATION ( #48, #73 ) ;
#55 = PERSON_AND_ORGANIZATION_ROLE ( 'creator' ) ;
#56 = ORIENTED_EDGE ( 'NONE', *, *, #36, .T. ) ;
#57 = ORIENTED_EDGE ( 'NONE', *, *, #10, .T. ) ;
#58 = AXIS2_PLACEMENT_3D ( 'NONE', #35, #78, #214 ) ;
#59 = APPLICATION_PROTOCOL_DEFINITION ( 'international standard', 'config_control_design', 1994, #137 ) ;
#60 = DATE_AND_TIME ( #17, #101 ) ;
#61 = EDGE_LOOP ( 'NONE', ( #28 ) ) ;
#62 = CIRCLE ( 'NONE', #18, 0.8799999999999960076 ) ;
#63 = CC_DESIGN_DATE_AND_TIME_ASSIGNMENT ( #194, #109, ( #220 ) ) ;
#64 = EDGE_LOOP ( 'NONE', ( #56 ) ) ;
#65 = CONICAL_SURFACE ( 'NONE', #192, 0.7999999999999996003, 0.7853981633974507215 ) ;
#66 = DIRECTION ( 'NONE',  ( 0.0000000000000000000, 1.000000000000000000, 0.0000000000000000000 ) ) ;
#67 = DIRECTION ( 'NONE',  ( 0.0000000000000000000, 1.000000000000000000, 0.0000000000000000000 ) ) ;
#68 = APPROVAL_PERSON_ORGANIZATION ( #195, #42, #174 ) ;
#69 = DIRECTION ( 'NONE',  ( -3.491481338843133355E-15, 1.224646799147353207E-16, -1.000000000000000000 ) ) ;
#70 = FACE_OUTER_BOUND ( 'NONE', #79, .T. ) ;
#71 = DIRECTION ( 'NONE',  ( -3.491481338843133355E-15, 1.224646799147353207E-16, -1.000000000000000000 ) ) ;
#72 = CC_DESIGN_DATE_AND_TIME_ASSIGNMENT ( #147, #99, ( #151 ) ) ;
#73 = ORGANIZATION ( 'UNSPECIFIED', 'UNSPECIFIED', '' ) ;
#74 =( NAMED_UNIT ( * ) PLANE_ANGLE_UNIT ( ) SI_UNIT ( $, .RADIAN. ) );
#75 = CALENDAR_DATE ( 2021, 8, 10 ) ;
#76 = PERSON_AND_ORGANIZATION ( #48, #73 ) ;
#77 = PRODUCT_DEFINITION_FORMATION_WITH_SPECIFIED_SOURCE ( 'ANY', '', #34, .NOT_KNOWN. ) ;
#78 = DIRECTION ( 'NONE',  ( 0.0000000000000000000, 0.0000000000000000000, 1.000000000000000000 ) ) ;
#79 = EDGE_LOOP ( 'NONE', ( #132 ) ) ;
#80 = ADVANCED_FACE ( 'NONE', ( #1 ), #29, .T. ) ;
#81 = VERTEX_POINT ( 'NONE', #200 ) ;
#82 = COORDINATED_UNIVERSAL_TIME_OFFSET ( 1, 0, .AHEAD. ) ;
#83 = AXIS2_PLACEMENT_3D ( 'NONE', #221, #44, #66 ) ;
#84 = PLANE ( 'NONE',  #134 ) ;
#85 = DIRECTION ( 'NONE',  ( 3.491481338843133355E-15, -1.224646799147353207E-16, 1.000000000000000000 ) ) ;
#86 = EDGE_CURVE ( 'NONE', #81, #81, #124, .T. ) ;
#87 = ORIENTED_EDGE ( 'NONE', *, *, #10, .F. ) ;
#88 = DIRECTION ( 'NONE',  ( -3.491481338843133355E-15, 1.224646799147353207E-16, -1.000000000000000000 ) ) ;
#89 = VERTEX_POINT ( 'NONE', #125 ) ;
#90 = DIRECTION ( 'NONE',  ( -3.491481338843133355E-15, 1.224646799147353207E-16, -1.000000000000000000 ) ) ;
#91 = VERTEX_POINT ( 'NONE', #110 ) ;
#92 = PERSON_AND_ORGANIZATION_ROLE ( 'classification_officer' ) ;
#93 = EDGE_LOOP ( 'NONE', ( #216 ) ) ;
#94 = ORIENTED_EDGE ( 'NONE', *, *, #43, .T. ) ;
#95 = CC_DESIGN_PERSON_AND_ORGANIZATION_ASSIGNMENT ( #112, #40, ( #77 ) ) ;
#96 = EDGE_LOOP ( 'NONE', ( #154 ) ) ;
#97 = COORDINATED_UNIVERSAL_TIME_OFFSET ( 1, 0, .AHEAD. ) ;
#98 = CIRCLE ( 'NONE', #6, 0.9999999999999993339 ) ;
#99 = DATE_TIME_ROLE ( 'classification_date' ) ;
#100 = APPROVAL_DATE_TIME ( #150, #103 ) ;
#101 = LOCAL_TIME ( 7, 16, 1.000000000000000000, #126 ) ;
#102 = DIRECTION ( 'NONE',  ( 0.0000000000000000000, 1.000000000000000000, 0.0000000000000000000 ) ) ;
#103 = APPROVAL ( #204, 'UNSPECIFIED' ) ;
#104 = DIRECTION ( 'NONE',  ( -3.491481338843133355E-15, 1.224646799147353207E-16, -1.000000000000000000 ) ) ;
#105 = DIRECTION ( 'NONE',  ( -3.491481338843133355E-15, 1.224646799147353207E-16, -1.000000000000000000 ) ) ;
#106 = CARTESIAN_POINT ( 'NONE',  ( 4.189777606611760026E-14, -1.469576158976823947E-15, 12.00000000000000000 ) ) ;
#107 = AXIS2_PLACEMENT_3D ( 'NONE', #144, #69, #141 ) ;
#108 = PLANE ( 'NONE',  #38 ) ;
#109 = DATE_TIME_ROLE ( 'creation_date' ) ;
#110 = CARTESIAN_POINT ( 'NONE',  ( 4.189777606611760026E-14, 0.8799999999999944533, 12.00000000000000000 ) ) ;
#111 = CONICAL_SURFACE ( 'NONE', #9, 0.9999999999999970024, 0.5235987755982873804 ) ;
#112 = PERSON_AND_ORGANIZATION ( #48, #73 ) ;
#113 = ADVANCED_FACE ( 'NONE', ( #142 ), #108, .F. ) ;
#114 = PERSON_AND_ORGANIZATION_ROLE ( 'design_owner' ) ;
#115 = DATE_AND_TIME ( #161, #32 ) ;
#116 = EDGE_CURVE ( 'NONE', #91, #91, #62, .T. ) ;
#117 = CARTESIAN_POINT ( 'NONE',  ( 4.189777606611760026E-14, 6.598943043712120378E-33, 12.00000000000000000 ) ) ;
#118 = DIRECTION ( 'NONE',  ( 0.0000000000000000000, 1.000000000000000000, 0.0000000000000000000 ) ) ;
#119 = FACE_OUTER_BOUND ( 'NONE', #61, .T. ) ;
#120 = ADVANCED_BREP_SHAPE_REPRESENTATION ( '58054', ( #215, #143, #58 ), #177 ) ;
#121 = CARTESIAN_POINT ( 'NONE',  ( 4.262346683482421392E-14, 0.9999999999999954481, 12.20784609690827338 ) ) ;
#122 = CLOSED_SHELL ( 'NONE', ( #8, #20, #80 ) ) ;
#123 = DIRECTION ( 'NONE',  ( -4.377113509971021706E-31, -1.000000000000000000, -1.232047923278991074E-16 ) ) ;
#124 = CIRCLE ( 'NONE', #23, 0.7999999999999996003 ) ;
#125 = CARTESIAN_POINT ( 'NONE',  ( 1.846146401950812481E-15, 0.8799999999999936762, 0.5287573447442551755 ) ) ;
#126 = COORDINATED_UNIVERSAL_TIME_OFFSET ( 1, 0, .AHEAD. ) ;
#127 = ADVANCED_FACE ( 'NONE', ( #11, #157 ), #219, .T. ) ;
#128 = VERTEX_POINT ( 'NONE', #183 ) ;
#129 = COORDINATED_UNIVERSAL_TIME_OFFSET ( 1, 0, .AHEAD. ) ;
#130 = APPROVAL_ROLE ( '' ) ;
#131 = LOCAL_TIME ( 7, 16, 1.000000000000000000, #97 ) ;
#132 = ORIENTED_EDGE ( 'NONE', *, *, #36, .F. ) ;
#133 = PERSON_AND_ORGANIZATION ( #48, #73 ) ;
#134 = AXIS2_PLACEMENT_3D ( 'NONE', #152, #208, #140 ) ;
#135 = EDGE_CURVE ( 'NONE', #128, #128, #218, .T. ) ;
#136 = FACE_BOUND ( 'NONE', #5, .T. ) ;
#137 = APPLICATION_CONTEXT ( 'configuration controlled 3d designs of mechanical parts and assemblies' ) ;
#138 = APPROVAL_ROLE ( '' ) ;
#139 = CIRCLE ( 'NONE', #26, 0.9999999999999970024 ) ;
#140 = DIRECTION ( 'NONE',  ( -4.275831445896958607E-31, -1.000000000000000000, -1.224646799147353207E-16 ) ) ;
#141 = DIRECTION ( 'NONE',  ( 4.275831445896958607E-31, 1.000000000000000000, 1.224646799147353207E-16 ) ) ;
#142 = FACE_OUTER_BOUND ( 'NONE', #212, .T. ) ;
#143 = MANIFOLD_SOLID_BREP ( 'Corps-Déplacer/Copier1[2]', #122 ) ;
#144 = CARTESIAN_POINT ( 'NONE',  ( 0.0000000000000000000, 0.0000000000000000000, 0.0000000000000000000 ) ) ;
#145 = CC_DESIGN_SECURITY_CLASSIFICATION ( #151, ( #77 ) ) ;
#146 = CC_DESIGN_PERSON_AND_ORGANIZATION_ASSIGNMENT ( #19, #92, ( #151 ) ) ;
#147 = DATE_AND_TIME ( #75, #46 ) ;
#148 = APPROVAL_DATE_TIME ( #115, #31 ) ;
#149 = EDGE_LOOP ( 'NONE', ( #2 ) ) ;
#150 = DATE_AND_TIME ( #165, #182 ) ;
#151 = SECURITY_CLASSIFICATION ( '', '', #180 ) ;
#152 = CARTESIAN_POINT ( 'NONE',  ( 4.189777606611760026E-14, 6.598943043712120378E-33, 12.00000000000000000 ) ) ;
#153 = CARTESIAN_POINT ( 'NONE',  ( 1.326762908760390423E-13, 5.999039130647358587E-33, 38.00000000000000000 ) ) ;
#154 = ORIENTED_EDGE ( 'NONE', *, *, #135, .F. ) ;
#155 = CARTESIAN_POINT ( 'NONE',  ( 1.319779946082704535E-13, -4.629164900776995227E-15, 37.79999999999999716 ) ) ;
#156 = CARTESIAN_POINT ( 'NONE',  ( 1.319779946082704535E-13, 0.9999999999999947820, 37.79999999999999716 ) ) ;
#157 = FACE_OUTER_BOUND ( 'NONE', #64, .T. ) ;
#158 = CC_DESIGN_APPROVAL ( #103, ( #151 ) ) ;
#159 = COORDINATED_UNIVERSAL_TIME_OFFSET ( 1, 0, .AHEAD. ) ;
#160 = ORIENTED_EDGE ( 'NONE', *, *, #116, .T. ) ;
#161 = CALENDAR_DATE ( 2021, 8, 10 ) ;
#162 = ADVANCED_FACE ( 'NONE', ( #70, #52 ), #65, .T. ) ;
#163 = APPROVAL_PERSON_ORGANIZATION ( #133, #103, #138 ) ;
#164 =( NAMED_UNIT ( * ) SI_UNIT ( $, .STERADIAN. ) SOLID_ANGLE_UNIT ( ) );
#165 = CALENDAR_DATE ( 2021, 8, 10 ) ;
#166 = CARTESIAN_POINT ( 'NONE',  ( 1.326762908760390423E-13, -4.653657836759941941E-15, 38.00000000000000000 ) ) ;
#167 = EDGE_LOOP ( 'NONE', ( #160 ) ) ;
#168 = FACE_OUTER_BOUND ( 'NONE', #93, .T. ) ;
#169 = VERTEX_POINT ( 'NONE', #121 ) ;
#170 = CARTESIAN_POINT ( 'NONE',  ( 1.326762908760390423E-13, -4.653657836759941941E-15, 38.00000000000000000 ) ) ;
#171 = DIRECTION ( 'NONE',  ( -3.491481338843133355E-15, 1.224646799147353207E-16, -1.000000000000000000 ) ) ;
#172 = CC_DESIGN_PERSON_AND_ORGANIZATION_ASSIGNMENT ( #76, #114, ( #34 ) ) ;
#173 = ORIENTED_EDGE ( 'NONE', *, *, #116, .F. ) ;
#174 = APPROVAL_ROLE ( '' ) ;
#175 = PRODUCT_DEFINITION_SHAPE ( 'NONE', 'NONE',  #220 ) ;
#176 = PERSON_AND_ORGANIZATION_ROLE ( 'creator' ) ;
#177 =( GEOMETRIC_REPRESENTATION_CONTEXT ( 3 ) GLOBAL_UNCERTAINTY_ASSIGNED_CONTEXT ( ( #179 ) ) GLOBAL_UNIT_ASSIGNED_CONTEXT ( ( #37, #74, #164 ) ) REPRESENTATION_CONTEXT ( 'NONE', 'WORKASPACE' ) );
#178 = APPROVAL_STATUS ( 'not_yet_approved' ) ;
#179 = UNCERTAINTY_MEASURE_WITH_UNIT (LENGTH_MEASURE( 1.000000000000000082E-05 ), #37, 'distance_accuracy_value', 'NONE');
#180 = SECURITY_CLASSIFICATION_LEVEL ( 'unclassified' ) ;
#181 = ORIENTED_EDGE ( 'NONE', *, *, #86, .F. ) ;
#182 = LOCAL_TIME ( 7, 16, 1.000000000000000000, #82 ) ;
#183 = CARTESIAN_POINT ( 'NONE',  ( 4.189777606611760026E-14, 0.8799999999999944533, 12.00000000000000000 ) ) ;
#184 = APPROVAL_PERSON_ORGANIZATION ( #39, #31, #130 ) ;
#185 = DIRECTION ( 'NONE',  ( 0.0000000000000000000, 1.000000000000000000, 0.0000000000000000000 ) ) ;
#186 = APPLICATION_CONTEXT ( 'configuration controlled 3d designs of mechanical parts and assemblies' ) ;
#187 = SHAPE_DEFINITION_REPRESENTATION ( #175, #120 ) ;
#188 = CONICAL_SURFACE ( 'NONE', #201, 0.8799999999999937872, 1.029744258676649649 ) ;
#189 = CARTESIAN_POINT ( 'NONE',  ( 1.846146401950812086E-15, -6.475409897667055900E-17, 0.5287573447442550645 ) ) ;
#190 = CARTESIAN_POINT ( 'NONE',  ( 4.262346683482421392E-14, -1.495029964706222445E-15, 12.20784609690827338 ) ) ;
#191 = VERTEX_POINT ( 'NONE', #156 ) ;
#192 = AXIS2_PLACEMENT_3D ( 'NONE', #166, #104, #185 ) ;
#193 = CARTESIAN_POINT ( 'NONE',  ( 0.0000000000000000000, 0.0000000000000000000, 0.0000000000000000000 ) ) ;
#194 = DATE_AND_TIME ( #213, #131 ) ;
#195 = PERSON_AND_ORGANIZATION ( #48, #73 ) ;
#196 = AXIS2_PLACEMENT_3D ( 'NONE', #117, #207, #13 ) ;
#197 = APPLICATION_PROTOCOL_DEFINITION ( 'international standard', 'config_control_design', 1994, #186 ) ;
#198 = APPROVAL_DATE_TIME ( #60, #42 ) ;
#199 = ADVANCED_FACE ( 'NONE', ( #30 ), #84, .F. ) ;
#200 = CARTESIAN_POINT ( 'NONE',  ( 1.326762908760390423E-13, 0.7999999999999949374, 38.00000000000000000 ) ) ;
#201 = AXIS2_PLACEMENT_3D ( 'NONE', #210, #3, #123 ) ;
#202 = CC_DESIGN_PERSON_AND_ORGANIZATION_ASSIGNMENT ( #54, #176, ( #77 ) ) ;
#203 = EDGE_LOOP ( 'NONE', ( #94 ) ) ;
#204 = APPROVAL_STATUS ( 'not_yet_approved' ) ;
#205 = FACE_OUTER_BOUND ( 'NONE', #209, .T. ) ;
#206 = PRODUCT_RELATED_PRODUCT_CATEGORY ( 'detail', '', ( #34 ) ) ;
#207 = DIRECTION ( 'NONE',  ( 3.491481338843133355E-15, -1.224646799147353207E-16, 1.000000000000000000 ) ) ;
#208 = DIRECTION ( 'NONE',  ( 3.491481338843133355E-15, -1.224646799147353207E-16, 1.000000000000000000 ) ) ;
#209 = EDGE_LOOP ( 'NONE', ( #57 ) ) ;
#210 = CARTESIAN_POINT ( 'NONE',  ( 1.846146401950812086E-15, -6.475409897667055900E-17, 0.5287573447442550645 ) ) ;
#211 = MECHANICAL_CONTEXT ( 'NONE', #186, 'mechanical' ) ;
#212 = EDGE_LOOP ( 'NONE', ( #181 ) ) ;
#213 = CALENDAR_DATE ( 2021, 8, 10 ) ;
#214 = DIRECTION ( 'NONE',  ( 1.000000000000000000, 0.0000000000000000000, 0.0000000000000000000 ) ) ;
#215 = MANIFOLD_SOLID_BREP ( 'Corps-Déplacer/Copier1[1]', #22 ) ;
#216 = ORIENTED_EDGE ( 'NONE', *, *, #43, .F. ) ;
#217 = ADVANCED_FACE ( 'NONE', ( #136, #205 ), #111, .T. ) ;
#218 = CIRCLE ( 'NONE', #83, 0.8799999999999960076 ) ;
#219 = CYLINDRICAL_SURFACE ( 'NONE', #107, 0.9999999999999983347 ) ;
#220 = PRODUCT_DEFINITION ( 'UNKNOWN', '', #77, #24 ) ;
#221 = CARTESIAN_POINT ( 'NONE',  ( 4.189777606611760026E-14, -1.469576158976823947E-15, 12.00000000000000000 ) ) ;
#222 = CC_DESIGN_APPROVAL ( #42, ( #77 ) ) ;
#223 = DIRECTION ( 'NONE',  ( -3.491481338843133355E-15, 1.224646799147353207E-16, -1.000000000000000000 ) ) ;
ENDSEC;
END-ISO-10303-21;
