ISO-10303-21;
HEADER;
FILE_DESCRIPTION (( 'STEP AP203' ),
    '1' );
FILE_NAME ('58052.step',
    '2021-10-07T13:48:22',
    ( '' ),
    ( '' ),
    'SwSTEP 2.0',
    'SolidWorks 2019',
    '' );
FILE_SCHEMA (( 'CONFIG_CONTROL_DESIGN' ));
ENDSEC;

DATA;
#1 = CARTESIAN_POINT ( 'NONE',  ( 4.262346683482421392E-14, -1.495029964706222445E-15, 12.20784609690827338 ) ) ;
#2 = DIRECTION ( 'NONE',  ( 3.491481338843133355E-15, -1.224646799147353207E-16, 1.000000000000000000 ) ) ;
#3 = ADVANCED_FACE ( 'NONE', ( #222 ), #62, .T. ) ;
#4 = FACE_OUTER_BOUND ( 'NONE', #14, .T. ) ;
#5 = CARTESIAN_POINT ( 'NONE',  ( 4.189777606611760026E-14, -1.469576158976823947E-15, 12.00000000000000000 ) ) ;
#6 = VERTEX_POINT ( 'NONE', #67 ) ;
#7 = ADVANCED_FACE ( 'NONE', ( #190 ), #166, .T. ) ;
#8 = DIRECTION ( 'NONE',  ( 1.000000000000000000, 0.0000000000000000000, 0.0000000000000000000 ) ) ;
#9 = APPROVAL_STATUS ( 'not_yet_approved' ) ;
#10 = DATE_TIME_ROLE ( 'creation_date' ) ;
#11 = MANIFOLD_SOLID_BREP ( 'Corps-Déplacer/Copier1[2]', #46 ) ;
#12 = MANIFOLD_SOLID_BREP ( 'Corps-Déplacer/Copier1[1]', #32 ) ;
#13 = ORIENTED_EDGE ( 'NONE', *, *, #218, .T. ) ;
#14 = EDGE_LOOP ( 'NONE', ( #206 ) ) ;
#15 = ORIENTED_EDGE ( 'NONE', *, *, #196, .T. ) ;
#16 = VERTEX_POINT ( 'NONE', #87 ) ;
#17 = CC_DESIGN_PERSON_AND_ORGANIZATION_ASSIGNMENT ( #60, #44, ( #208 ) ) ;
#18 = CARTESIAN_POINT ( 'NONE',  ( 0.0000000000000000000, 0.0000000000000000000, 0.0000000000000000000 ) ) ;
#19 = DIRECTION ( 'NONE',  ( 0.0000000000000000000, 1.000000000000000000, 0.0000000000000000000 ) ) ;
#20 = DIRECTION ( 'NONE',  ( 4.275831445896958607E-31, 1.000000000000000000, 1.224646799147353207E-16 ) ) ;
#21 = DIRECTION ( 'NONE',  ( 0.0000000000000000000, 1.000000000000000000, 0.0000000000000000000 ) ) ;
#22 = EDGE_CURVE ( 'NONE', #6, #6, #158, .T. ) ;
#23 = DATE_TIME_ROLE ( 'classification_date' ) ;
#24 = PERSON_AND_ORGANIZATION ( #194, #97 ) ;
#25 = PERSON_AND_ORGANIZATION ( #194, #97 ) ;
#26 = EDGE_LOOP ( 'NONE', ( #139 ) ) ;
#27 = CC_DESIGN_PERSON_AND_ORGANIZATION_ASSIGNMENT ( #117, #163, ( #208 ) ) ;
#28 = EDGE_LOOP ( 'NONE', ( #102 ) ) ;
#29 = AXIS2_PLACEMENT_3D ( 'NONE', #178, #73, #126 ) ;
#30 = EDGE_LOOP ( 'NONE', ( #152 ) ) ;
#31 = DESIGN_CONTEXT ( 'detailed design', #81, 'design' ) ;
#32 = CLOSED_SHELL ( 'NONE', ( #61, #161, #98, #170, #210 ) ) ;
#33 = FACE_OUTER_BOUND ( 'NONE', #187, .T. ) ;
#34 = VERTEX_POINT ( 'NONE', #108 ) ;
#35 = APPROVAL ( #168, 'UNSPECIFIED' ) ;
#36 = CARTESIAN_POINT ( 'NONE',  ( 4.189777606611760026E-14, 6.598943043712113536E-33, 12.00000000000000000 ) ) ;
#37 = DIRECTION ( 'NONE',  ( -3.491481338843133355E-15, 1.224646799147353207E-16, -1.000000000000000000 ) ) ;
#38 = CC_DESIGN_SECURITY_CLASSIFICATION ( #58, ( #208 ) ) ;
#39 = DIRECTION ( 'NONE',  ( -4.275831445896958607E-31, -1.000000000000000000, -1.224646799147353207E-16 ) ) ;
#40 = EDGE_CURVE ( 'NONE', #144, #144, #148, .T. ) ;
#41 = PERSON_AND_ORGANIZATION_ROLE ( 'design_owner' ) ;
#42 = CALENDAR_DATE ( 2021, 7, 10 ) ;
#43 = AXIS2_PLACEMENT_3D ( 'NONE', #160, #142, #53 ) ;
#44 = PERSON_AND_ORGANIZATION_ROLE ( 'creator' ) ;
#45 = APPROVAL_ROLE ( '' ) ;
#46 = CLOSED_SHELL ( 'NONE', ( #7, #47, #3 ) ) ;
#47 = ADVANCED_FACE ( 'NONE', ( #182, #175 ), #157, .T. ) ;
#48 = LOCAL_TIME ( 15, 48, 22.00000000000000000, #145 ) ;
#49 = AXIS2_PLACEMENT_3D ( 'NONE', #1, #2, #198 ) ;
#50 = CARTESIAN_POINT ( 'NONE',  ( 4.189777606611760026E-14, 0.8799999999999936762, 12.00000000000000000 ) ) ;
#51 = VERTEX_POINT ( 'NONE', #193 ) ;
#52 = FACE_BOUND ( 'NONE', #173, .T. ) ;
#53 = DIRECTION ( 'NONE',  ( 0.0000000000000000000, 1.000000000000000000, 0.0000000000000000000 ) ) ;
#54 = PLANE ( 'NONE',  #115 ) ;
#55 = CARTESIAN_POINT ( 'NONE',  ( 1.319779946082704535E-13, 0.9999999999999947820, 37.79999999999999716 ) ) ;
#56 = APPROVAL_ROLE ( '' ) ;
#57 = DIRECTION ( 'NONE',  ( 0.0000000000000000000, 0.0000000000000000000, 1.000000000000000000 ) ) ;
#58 = SECURITY_CLASSIFICATION ( '', '', #77 ) ;
#59 = VERTEX_POINT ( 'NONE', #55 ) ;
#60 = PERSON_AND_ORGANIZATION ( #194, #97 ) ;
#61 = ADVANCED_FACE ( 'NONE', ( #140 ), #54, .F. ) ;
#62 = PLANE ( 'NONE',  #184 ) ;
#63 = APPROVAL_DATE_TIME ( #223, #114 ) ;
#64 = DIRECTION ( 'NONE',  ( -4.275831445896958607E-31, -1.000000000000000000, -1.224646799147353207E-16 ) ) ;
#65 = CONICAL_SURFACE ( 'NONE', #43, 0.7999999999999996003, 0.7853981633974507215 ) ;
#66 = CIRCLE ( 'NONE', #220, 0.9999999999999970024 ) ;
#67 = CARTESIAN_POINT ( 'NONE',  ( 1.326762908760390423E-13, 0.7999999999999949374, 38.00000000000000000 ) ) ;
#68 = APPLICATION_CONTEXT ( 'configuration controlled 3d designs of mechanical parts and assemblies' ) ;
#69 = AXIS2_PLACEMENT_3D ( 'NONE', #155, #216, #21 ) ;
#70 = CARTESIAN_POINT ( 'NONE',  ( 1.846146401950811692E-15, -6.475409897667054668E-17, 0.5287573447442549535 ) ) ;
#71 = DIRECTION ( 'NONE',  ( 4.275831445896958607E-31, 1.000000000000000000, 1.224646799147353207E-16 ) ) ;
#72 = DIRECTION ( 'NONE',  ( -4.377113509971021706E-31, -1.000000000000000000, -1.232047923278991074E-16 ) ) ;
#73 = DIRECTION ( 'NONE',  ( -3.491481338843133355E-15, 1.224646799147353207E-16, -1.000000000000000000 ) ) ;
#74 = PERSON_AND_ORGANIZATION ( #194, #97 ) ;
#75 = CC_DESIGN_PERSON_AND_ORGANIZATION_ASSIGNMENT ( #165, #41, ( #180 ) ) ;
#76 = AXIS2_PLACEMENT_3D ( 'NONE', #200, #37, #129 ) ;
#77 = SECURITY_CLASSIFICATION_LEVEL ( 'unclassified' ) ;
#78 = APPROVAL_DATE_TIME ( #94, #101 ) ;
#79 = APPLICATION_PROTOCOL_DEFINITION ( 'international standard', 'config_control_design', 1994, #68 ) ;
#80 = EDGE_LOOP ( 'NONE', ( #13 ) ) ;
#81 = APPLICATION_CONTEXT ( 'configuration controlled 3d designs of mechanical parts and assemblies' ) ;
#82 = EDGE_LOOP ( 'NONE', ( #84 ) ) ;
#83 = CARTESIAN_POINT ( 'NONE',  ( 4.189777606611760026E-14, 6.598943043712113536E-33, 12.00000000000000000 ) ) ;
#84 = ORIENTED_EDGE ( 'NONE', *, *, #196, .F. ) ;
#85 = CC_DESIGN_APPROVAL ( #101, ( #208 ) ) ;
#86 = CC_DESIGN_DATE_AND_TIME_ASSIGNMENT ( #201, #23, ( #58 ) ) ;
#87 = CARTESIAN_POINT ( 'NONE',  ( 1.846146401950812086E-15, 0.8799999999999935651, 0.5287573447442550645 ) ) ;
#88 = DIRECTION ( 'NONE',  ( -3.491481338843133355E-15, 1.224646799147353207E-16, -1.000000000000000000 ) ) ;
#89 = CONICAL_SURFACE ( 'NONE', #49, 0.9999999999999970024, 0.5235987755982904890 ) ;
#90 = DIRECTION ( 'NONE',  ( -3.491481338843133355E-15, 1.224646799147353207E-16, -1.000000000000000000 ) ) ;
#91 = FACE_BOUND ( 'NONE', #211, .T. ) ;
#92 = CARTESIAN_POINT ( 'NONE',  ( 0.0000000000000000000, 0.0000000000000000000, 0.0000000000000000000 ) ) ;
#93 = CARTESIAN_POINT ( 'NONE',  ( 0.0000000000000000000, 0.0000000000000000000, 0.0000000000000000000 ) ) ;
#94 = DATE_AND_TIME ( #42, #118 ) ;
#95 = LOCAL_TIME ( 15, 48, 22.00000000000000000, #185 ) ;
#96 = APPLICATION_PROTOCOL_DEFINITION ( 'international standard', 'config_control_design', 1994, #81 ) ;
#97 = ORGANIZATION ( 'UNSPECIFIED', 'UNSPECIFIED', '' ) ;
#98 = ADVANCED_FACE ( 'NONE', ( #143, #181 ), #127, .T. ) ;
#99 = COORDINATED_UNIVERSAL_TIME_OFFSET ( 1, 0, .AHEAD. ) ;
#100 = ORIENTED_EDGE ( 'NONE', *, *, #40, .T. ) ;
#101 = APPROVAL ( #164, 'UNSPECIFIED' ) ;
#102 = ORIENTED_EDGE ( 'NONE', *, *, #151, .T. ) ;
#103 = APPROVAL_PERSON_ORGANIZATION ( #25, #101, #169 ) ;
#104 = SHAPE_DEFINITION_REPRESENTATION ( #106, #105 ) ;
#105 = ADVANCED_BREP_SHAPE_REPRESENTATION ( '58052', ( #12, #11, #202 ), #149 ) ;
#106 = PRODUCT_DEFINITION_SHAPE ( 'NONE', 'NONE',  #147 ) ;
#107 = PLANE ( 'NONE',  #199 ) ;
#108 = CARTESIAN_POINT ( 'NONE',  ( 4.262346683482421392E-14, 0.9999999999999954481, 12.20784609690827338 ) ) ;
#109 = CC_DESIGN_PERSON_AND_ORGANIZATION_ASSIGNMENT ( #135, #183, ( #58 ) ) ;
#110 = DIRECTION ( 'NONE',  ( -3.491481338843133355E-15, 1.224646799147353207E-16, -1.000000000000000000 ) ) ;
#111 = DIRECTION ( 'NONE',  ( -3.491481338843133355E-15, 1.224646799147353207E-16, -1.000000000000000000 ) ) ;
#112 = DIRECTION ( 'NONE',  ( -3.491481338843133355E-15, 1.224646799147353207E-16, -1.000000000000000000 ) ) ;
#113 = CALENDAR_DATE ( 2021, 7, 10 ) ;
#114 = APPROVAL ( #9, 'UNSPECIFIED' ) ;
#115 = AXIS2_PLACEMENT_3D ( 'NONE', #36, #125, #39 ) ;
#116 = PERSON_AND_ORGANIZATION ( #194, #97 ) ;
#117 = PERSON_AND_ORGANIZATION ( #194, #97 ) ;
#118 = LOCAL_TIME ( 15, 48, 22.00000000000000000, #99 ) ;
#119 = COORDINATED_UNIVERSAL_TIME_OFFSET ( 1, 0, .AHEAD. ) ;
#120 = CALENDAR_DATE ( 2021, 7, 10 ) ;
#121 = AXIS2_PLACEMENT_3D ( 'NONE', #92, #111, #195 ) ;
#122 = EDGE_LOOP ( 'NONE', ( #15 ) ) ;
#123 = PRODUCT_RELATED_PRODUCT_CATEGORY ( 'detail', '', ( #180 ) ) ;
#124 = DIRECTION ( 'NONE',  ( 3.491481338843133355E-15, -1.224646799147353207E-16, 1.000000000000000000 ) ) ;
#125 = DIRECTION ( 'NONE',  ( 3.491481338843133355E-15, -1.224646799147353207E-16, 1.000000000000000000 ) ) ;
#126 = DIRECTION ( 'NONE',  ( 0.0000000000000000000, 1.000000000000000000, 0.0000000000000000000 ) ) ;
#127 = CYLINDRICAL_SURFACE ( 'NONE', #171, 0.9999999999999983347 ) ;
#128 = AXIS2_PLACEMENT_3D ( 'NONE', #70, #124, #72 ) ;
#129 = DIRECTION ( 'NONE',  ( 0.0000000000000000000, 1.000000000000000000, 0.0000000000000000000 ) ) ;
#130 = MECHANICAL_CONTEXT ( 'NONE', #68, 'mechanical' ) ;
#131 = CC_DESIGN_PERSON_AND_ORGANIZATION_ASSIGNMENT ( #116, #134, ( #147 ) ) ;
#132 = CALENDAR_DATE ( 2021, 7, 10 ) ;
#133 = DATE_AND_TIME ( #113, #197 ) ;
#134 = PERSON_AND_ORGANIZATION_ROLE ( 'creator' ) ;
#135 = PERSON_AND_ORGANIZATION ( #194, #97 ) ;
#136 = ORIENTED_EDGE ( 'NONE', *, *, #218, .F. ) ;
#137 = ORIENTED_EDGE ( 'NONE', *, *, #40, .F. ) ;
#138 = AXIS2_PLACEMENT_3D ( 'NONE', #5, #90, #19 ) ;
#139 = ORIENTED_EDGE ( 'NONE', *, *, #192, .F. ) ;
#140 = FACE_OUTER_BOUND ( 'NONE', #172, .T. ) ;
#141 = DIRECTION ( 'NONE',  ( 4.377113509971021706E-31, 1.000000000000000000, 1.232047923278991074E-16 ) ) ;
#142 = DIRECTION ( 'NONE',  ( -3.491481338843133355E-15, 1.224646799147353207E-16, -1.000000000000000000 ) ) ;
#143 = FACE_OUTER_BOUND ( 'NONE', #82, .T. ) ;
#144 = VERTEX_POINT ( 'NONE', #50 ) ;
#145 = COORDINATED_UNIVERSAL_TIME_OFFSET ( 1, 0, .AHEAD. ) ;
#146 = APPROVAL_DATE_TIME ( #203, #35 ) ;
#147 = PRODUCT_DEFINITION ( 'UNKNOWN', '', #208, #31 ) ;
#148 = CIRCLE ( 'NONE', #29, 0.8799999999999951195 ) ;
#149 =( GEOMETRIC_REPRESENTATION_CONTEXT ( 3 ) GLOBAL_UNCERTAINTY_ASSIGNED_CONTEXT ( ( #176 ) ) GLOBAL_UNIT_ASSIGNED_CONTEXT ( ( #150, #221, #186 ) ) REPRESENTATION_CONTEXT ( 'NONE', 'WORKASPACE' ) );
#150 =( LENGTH_UNIT ( ) NAMED_UNIT ( * ) SI_UNIT ( .MILLI., .METRE. ) );
#151 = EDGE_CURVE ( 'NONE', #16, #16, #167, .T. ) ;
#152 = ORIENTED_EDGE ( 'NONE', *, *, #192, .T. ) ;
#153 = DIRECTION ( 'NONE',  ( 3.491481338843133355E-15, -1.224646799147353207E-16, 1.000000000000000000 ) ) ;
#154 = AXIS2_PLACEMENT_3D ( 'NONE', #214, #110, #141 ) ;
#155 = CARTESIAN_POINT ( 'NONE',  ( 1.319779946082704535E-13, -4.629164900776995227E-15, 37.79999999999999716 ) ) ;
#156 = CIRCLE ( 'NONE', #138, 0.8799999999999951195 ) ;
#157 = CYLINDRICAL_SURFACE ( 'NONE', #121, 0.8799999999999943423 ) ;
#158 = CIRCLE ( 'NONE', #76, 0.7999999999999996003 ) ;
#159 = CARTESIAN_POINT ( 'NONE',  ( 4.262346683482421392E-14, -1.495029964706222445E-15, 12.20784609690827338 ) ) ;
#160 = CARTESIAN_POINT ( 'NONE',  ( 1.326762908760390423E-13, -4.653657836759941941E-15, 38.00000000000000000 ) ) ;
#161 = ADVANCED_FACE ( 'NONE', ( #91, #191 ), #89, .T. ) ;
#162 = DIRECTION ( 'NONE',  ( -3.491481338843133355E-15, 1.224646799147353207E-16, -1.000000000000000000 ) ) ;
#163 = PERSON_AND_ORGANIZATION_ROLE ( 'design_supplier' ) ;
#164 = APPROVAL_STATUS ( 'not_yet_approved' ) ;
#165 = PERSON_AND_ORGANIZATION ( #194, #97 ) ;
#166 = CONICAL_SURFACE ( 'NONE', #128, 0.8799999999999936762, 1.029744258676649649 ) ;
#167 = CIRCLE ( 'NONE', #154, 0.8799999999999936762 ) ;
#168 = APPROVAL_STATUS ( 'not_yet_approved' ) ;
#169 = APPROVAL_ROLE ( '' ) ;
#170 = ADVANCED_FACE ( 'NONE', ( #33, #52 ), #65, .T. ) ;
#171 = AXIS2_PLACEMENT_3D ( 'NONE', #18, #88, #20 ) ;
#172 = EDGE_LOOP ( 'NONE', ( #100 ) ) ;
#173 = EDGE_LOOP ( 'NONE', ( #174 ) ) ;
#174 = ORIENTED_EDGE ( 'NONE', *, *, #22, .T. ) ;
#175 = FACE_OUTER_BOUND ( 'NONE', #30, .T. ) ;
#176 = UNCERTAINTY_MEASURE_WITH_UNIT (LENGTH_MEASURE( 1.000000000000000082E-05 ), #150, 'distance_accuracy_value', 'NONE');
#177 = LOCAL_TIME ( 15, 48, 22.00000000000000000, #119 ) ;
#178 = CARTESIAN_POINT ( 'NONE',  ( 4.189777606611760026E-14, -1.469576158976823947E-15, 12.00000000000000000 ) ) ;
#179 = CC_DESIGN_APPROVAL ( #35, ( #147 ) ) ;
#180 = PRODUCT ( '58052', '58052', '', ( #130 ) ) ;
#181 = FACE_OUTER_BOUND ( 'NONE', #80, .T. ) ;
#182 = FACE_OUTER_BOUND ( 'NONE', #205, .T. ) ;
#183 = PERSON_AND_ORGANIZATION_ROLE ( 'classification_officer' ) ;
#184 = AXIS2_PLACEMENT_3D ( 'NONE', #83, #153, #64 ) ;
#185 = COORDINATED_UNIVERSAL_TIME_OFFSET ( 1, 0, .AHEAD. ) ;
#186 =( NAMED_UNIT ( * ) SI_UNIT ( $, .STERADIAN. ) SOLID_ANGLE_UNIT ( ) );
#187 = EDGE_LOOP ( 'NONE', ( #136 ) ) ;
#188 = CIRCLE ( 'NONE', #69, 0.9999999999999993339 ) ;
#189 = APPROVAL_PERSON_ORGANIZATION ( #74, #35, #56 ) ;
#190 = FACE_OUTER_BOUND ( 'NONE', #28, .T. ) ;
#191 = FACE_OUTER_BOUND ( 'NONE', #122, .T. ) ;
#192 = EDGE_CURVE ( 'NONE', #51, #51, #156, .T. ) ;
#193 = CARTESIAN_POINT ( 'NONE',  ( 4.189777606611760026E-14, 0.8799999999999936762, 12.00000000000000000 ) ) ;
#194 = PERSON ( 'UNSPECIFIED', 'UNSPECIFIED', 'UNSPECIFIED', ('UNSPECIFIED'), ('UNSPECIFIED'), ('UNSPECIFIED') ) ;
#195 = DIRECTION ( 'NONE',  ( 4.275831445896958607E-31, 1.000000000000000000, 1.224646799147353207E-16 ) ) ;
#196 = EDGE_CURVE ( 'NONE', #34, #34, #66, .T. ) ;
#197 = LOCAL_TIME ( 15, 48, 22.00000000000000000, #219 ) ;
#198 = DIRECTION ( 'NONE',  ( 0.0000000000000000000, -1.000000000000000000, 0.0000000000000000000 ) ) ;
#199 = AXIS2_PLACEMENT_3D ( 'NONE', #217, #112, #71 ) ;
#200 = CARTESIAN_POINT ( 'NONE',  ( 1.326762908760390423E-13, -4.653657836759941941E-15, 38.00000000000000000 ) ) ;
#201 = DATE_AND_TIME ( #204, #95 ) ;
#202 = AXIS2_PLACEMENT_3D ( 'NONE', #93, #57, #8 ) ;
#203 = DATE_AND_TIME ( #132, #48 ) ;
#204 = CALENDAR_DATE ( 2021, 7, 10 ) ;
#205 = EDGE_LOOP ( 'NONE', ( #209 ) ) ;
#206 = ORIENTED_EDGE ( 'NONE', *, *, #22, .F. ) ;
#207 = CC_DESIGN_APPROVAL ( #114, ( #58 ) ) ;
#208 = PRODUCT_DEFINITION_FORMATION_WITH_SPECIFIED_SOURCE ( 'ANY', '', #180, .NOT_KNOWN. ) ;
#209 = ORIENTED_EDGE ( 'NONE', *, *, #151, .F. ) ;
#210 = ADVANCED_FACE ( 'NONE', ( #4 ), #107, .F. ) ;
#211 = EDGE_LOOP ( 'NONE', ( #137 ) ) ;
#212 = DIRECTION ( 'NONE',  ( 0.0000000000000000000, 1.000000000000000000, 0.0000000000000000000 ) ) ;
#213 = APPROVAL_PERSON_ORGANIZATION ( #24, #114, #45 ) ;
#214 = CARTESIAN_POINT ( 'NONE',  ( 1.846146401950811692E-15, -6.475409897667054668E-17, 0.5287573447442549535 ) ) ;
#215 = CC_DESIGN_DATE_AND_TIME_ASSIGNMENT ( #133, #10, ( #147 ) ) ;
#216 = DIRECTION ( 'NONE',  ( -3.491481338843133355E-15, 1.224646799147353207E-16, -1.000000000000000000 ) ) ;
#217 = CARTESIAN_POINT ( 'NONE',  ( 1.326762908760390423E-13, 5.999039130647358587E-33, 38.00000000000000000 ) ) ;
#218 = EDGE_CURVE ( 'NONE', #59, #59, #188, .T. ) ;
#219 = COORDINATED_UNIVERSAL_TIME_OFFSET ( 1, 0, .AHEAD. ) ;
#220 = AXIS2_PLACEMENT_3D ( 'NONE', #159, #162, #212 ) ;
#221 =( NAMED_UNIT ( * ) PLANE_ANGLE_UNIT ( ) SI_UNIT ( $, .RADIAN. ) );
#222 = FACE_OUTER_BOUND ( 'NONE', #26, .T. ) ;
#223 = DATE_AND_TIME ( #120, #177 ) ;
ENDSEC;
END-ISO-10303-21;
