ISO-10303-21;
HEADER;
FILE_DESCRIPTION (( 'STEP AP203' ),
    '1' );
FILE_NAME ('57892.step',
    '2021-10-08T05:16:00',
    ( '' ),
    ( '' ),
    'SwSTEP 2.0',
    'SolidWorks 2019',
    '' );
FILE_SCHEMA (( 'CONFIG_CONTROL_DESIGN' ));
ENDSEC;

DATA;
#1 = CYLINDRICAL_SURFACE ( 'NONE', #214, 0.9999999999999983347 ) ;
#2 = AXIS2_PLACEMENT_3D ( 'NONE', #126, #58, #199 ) ;
#3 = APPROVAL ( #42, 'UNSPECIFIED' ) ;
#4 = APPLICATION_CONTEXT ( 'configuration controlled 3d designs of mechanical parts and assemblies' ) ;
#5 = DIRECTION ( 'NONE',  ( 1.000000000000000000, 0.0000000000000000000, 0.0000000000000000000 ) ) ;
#6 = ORGANIZATION ( 'UNSPECIFIED', 'UNSPECIFIED', '' ) ;
#7 = PERSON_AND_ORGANIZATION_ROLE ( 'design_supplier' ) ;
#8 = CIRCLE ( 'NONE', #23, 0.9999999999999970024 ) ;
#9 = PERSON_AND_ORGANIZATION_ROLE ( 'creator' ) ;
#10 = DIRECTION ( 'NONE',  ( -3.491481338843133355E-15, 1.224646799147353207E-16, -1.000000000000000000 ) ) ;
#11 = CC_DESIGN_APPROVAL ( #193, ( #112 ) ) ;
#12 = CARTESIAN_POINT ( 'NONE',  ( 4.189777606611760026E-14, -1.469576158976823947E-15, 12.00000000000000000 ) ) ;
#13 = EDGE_LOOP ( 'NONE', ( #163 ) ) ;
#14 = DATE_AND_TIME ( #221, #192 ) ;
#15 = CARTESIAN_POINT ( 'NONE',  ( 1.326762908760390423E-13, -4.653657836759941941E-15, 38.00000000000000000 ) ) ;
#16 = APPROVAL_PERSON_ORGANIZATION ( #21, #193, #113 ) ;
#17 = EDGE_LOOP ( 'NONE', ( #160 ) ) ;
#18 = EDGE_LOOP ( 'NONE', ( #143 ) ) ;
#19 = CIRCLE ( 'NONE', #71, 0.9899999999999934408 ) ;
#20 = CARTESIAN_POINT ( 'NONE',  ( 2.076914702194665471E-15, 0.9899999999999934408, 0.5948520128372875027 ) ) ;
#21 = PERSON_AND_ORGANIZATION ( #49, #6 ) ;
#22 = PERSON_AND_ORGANIZATION ( #49, #6 ) ;
#23 = AXIS2_PLACEMENT_3D ( 'NONE', #170, #10, #56 ) ;
#24 = CALENDAR_DATE ( 2021, 8, 10 ) ;
#25 = AXIS2_PLACEMENT_3D ( 'NONE', #219, #213, #5 ) ;
#26 = CARTESIAN_POINT ( 'NONE',  ( 4.189777606611760026E-14, 7.423810924176122083E-33, 12.00000000000000000 ) ) ;
#27 = FACE_OUTER_BOUND ( 'NONE', #120, .T. ) ;
#28 = EDGE_LOOP ( 'NONE', ( #83 ) ) ;
#29 = EDGE_CURVE ( 'NONE', #190, #190, #218, .T. ) ;
#30 = PERSON_AND_ORGANIZATION ( #49, #6 ) ;
#31 = EDGE_LOOP ( 'NONE', ( #144 ) ) ;
#32 = LOCAL_TIME ( 7, 16, 0.0000000000000000000, #62 ) ;
#33 = PRODUCT ( '57892', '57892', '', ( #201 ) ) ;
#34 = CARTESIAN_POINT ( 'NONE',  ( 1.319779946082704535E-13, -4.629164900776995227E-15, 37.79999999999999716 ) ) ;
#35 = AXIS2_PLACEMENT_3D ( 'NONE', #44, #137, #40 ) ;
#36 = FACE_OUTER_BOUND ( 'NONE', #18, .T. ) ;
#37 = DESIGN_CONTEXT ( 'detailed design', #4, 'design' ) ;
#38 = CIRCLE ( 'NONE', #168, 0.9899999999999932188 ) ;
#39 = DATE_TIME_ROLE ( 'creation_date' ) ;
#40 = DIRECTION ( 'NONE',  ( 4.275831445896958607E-31, 1.000000000000000000, 1.224646799147353207E-16 ) ) ;
#41 = AXIS2_PLACEMENT_3D ( 'NONE', #34, #78, #176 ) ;
#42 = APPROVAL_STATUS ( 'not_yet_approved' ) ;
#43 = DATE_TIME_ROLE ( 'classification_date' ) ;
#44 = CARTESIAN_POINT ( 'NONE',  ( 1.326762908760390423E-13, 5.999039130647358587E-33, 38.00000000000000000 ) ) ;
#45 = ORIENTED_EDGE ( 'NONE', *, *, #151, .T. ) ;
#46 = DIRECTION ( 'NONE',  ( 4.275831445896958607E-31, 1.000000000000000000, 1.224646799147353207E-16 ) ) ;
#47 = CC_DESIGN_APPROVAL ( #3, ( #212 ) ) ;
#48 = ORIENTED_EDGE ( 'NONE', *, *, #195, .T. ) ;
#49 = PERSON ( 'UNSPECIFIED', 'UNSPECIFIED', 'UNSPECIFIED', ('UNSPECIFIED'), ('UNSPECIFIED'), ('UNSPECIFIED') ) ;
#50 = PLANE ( 'NONE',  #200 ) ;
#51 = DIRECTION ( 'NONE',  ( 3.491481338843133355E-15, -1.224646799147353207E-16, 1.000000000000000000 ) ) ;
#52 = DIRECTION ( 'NONE',  ( -4.275831445896958607E-31, -1.000000000000000000, -1.224646799147353207E-16 ) ) ;
#53 = PERSON_AND_ORGANIZATION ( #49, #6 ) ;
#54 = AXIS2_PLACEMENT_3D ( 'NONE', #68, #70, #118 ) ;
#55 = DIRECTION ( 'NONE',  ( 3.890767564418683918E-31, 1.000000000000000000, 1.095153709581324824E-16 ) ) ;
#56 = DIRECTION ( 'NONE',  ( 0.0000000000000000000, 1.000000000000000000, 0.0000000000000000000 ) ) ;
#57 = MANIFOLD_SOLID_BREP ( 'Corps-Déplacer/Copier1[1]', #179 ) ;
#58 = DIRECTION ( 'NONE',  ( -3.491481338843133355E-15, 1.224646799147353207E-16, -1.000000000000000000 ) ) ;
#59 = CALENDAR_DATE ( 2021, 8, 10 ) ;
#60 = COORDINATED_UNIVERSAL_TIME_OFFSET ( 1, 0, .AHEAD. ) ;
#61 = CARTESIAN_POINT ( 'NONE',  ( 4.189777606611760026E-14, 0.9899999999999917755, 12.00000000000000000 ) ) ;
#62 = COORDINATED_UNIVERSAL_TIME_OFFSET ( 1, 0, .AHEAD. ) ;
#63 = CLOSED_SHELL ( 'NONE', ( #164, #205, #74 ) ) ;
#64 = ORIENTED_EDGE ( 'NONE', *, *, #97, .T. ) ;
#65 = CARTESIAN_POINT ( 'NONE',  ( 4.189777606611760026E-14, 0.9899999999999917755, 12.00000000000000000 ) ) ;
#66 = FACE_OUTER_BOUND ( 'NONE', #121, .T. ) ;
#67 = APPROVAL_PERSON_ORGANIZATION ( #73, #3, #187 ) ;
#68 = CARTESIAN_POINT ( 'NONE',  ( 4.189777606611760026E-14, -1.469576158976823947E-15, 12.00000000000000000 ) ) ;
#69 = CC_DESIGN_PERSON_AND_ORGANIZATION_ASSIGNMENT ( #30, #81, ( #33 ) ) ;
#70 = DIRECTION ( 'NONE',  ( -3.491481338843133355E-15, 1.224646799147353207E-16, -1.000000000000000000 ) ) ;
#71 = AXIS2_PLACEMENT_3D ( 'NONE', #129, #127, #55 ) ;
#72 = FACE_OUTER_BOUND ( 'NONE', #17, .T. ) ;
#73 = PERSON_AND_ORGANIZATION ( #49, #6 ) ;
#74 = ADVANCED_FACE ( 'NONE', ( #211 ), #50, .T. ) ;
#75 = APPROVAL_DATE_TIME ( #14, #125 ) ;
#76 = FACE_OUTER_BOUND ( 'NONE', #31, .T. ) ;
#77 = PRODUCT_DEFINITION ( 'UNKNOWN', '', #112, #37 ) ;
#78 = DIRECTION ( 'NONE',  ( -3.491481338843133355E-15, 1.224646799147353207E-16, -1.000000000000000000 ) ) ;
#79 = CARTESIAN_POINT ( 'NONE',  ( 0.0000000000000000000, 0.0000000000000000000, 0.0000000000000000000 ) ) ;
#80 = ORIENTED_EDGE ( 'NONE', *, *, #134, .T. ) ;
#81 = PERSON_AND_ORGANIZATION_ROLE ( 'design_owner' ) ;
#82 = LOCAL_TIME ( 7, 16, 0.0000000000000000000, #204 ) ;
#83 = ORIENTED_EDGE ( 'NONE', *, *, #97, .F. ) ;
#84 = VERTEX_POINT ( 'NONE', #61 ) ;
#85 = VERTEX_POINT ( 'NONE', #181 ) ;
#86 = APPLICATION_PROTOCOL_DEFINITION ( 'international standard', 'config_control_design', 1994, #4 ) ;
#87 = ADVANCED_FACE ( 'NONE', ( #172, #124 ), #99, .T. ) ;
#88 = APPROVAL_STATUS ( 'not_yet_approved' ) ;
#89 = AXIS2_PLACEMENT_3D ( 'NONE', #183, #138, #177 ) ;
#90 = VERTEX_POINT ( 'NONE', #20 ) ;
#91 = CC_DESIGN_PERSON_AND_ORGANIZATION_ASSIGNMENT ( #132, #7, ( #112 ) ) ;
#92 = UNCERTAINTY_MEASURE_WITH_UNIT (LENGTH_MEASURE( 1.000000000000000082E-05 ), #166, 'distance_accuracy_value', 'NONE');
#93 = VERTEX_POINT ( 'NONE', #146 ) ;
#94 = APPROVAL_STATUS ( 'not_yet_approved' ) ;
#95 = APPROVAL_DATE_TIME ( #208, #193 ) ;
#96 = CIRCLE ( 'NONE', #41, 0.9999999999999993339 ) ;
#97 = EDGE_CURVE ( 'NONE', #119, #119, #96, .T. ) ;
#98 = PERSON_AND_ORGANIZATION_ROLE ( 'classification_officer' ) ;
#99 = CONICAL_SURFACE ( 'NONE', #197, 0.7999999999999996003, 0.7853981633974507215 ) ;
#100 = DIRECTION ( 'NONE',  ( -4.275831445896958607E-31, -1.000000000000000000, -1.224646799147353207E-16 ) ) ;
#101 = CARTESIAN_POINT ( 'NONE',  ( 4.189777606611760026E-14, 7.423810924176122083E-33, 12.00000000000000000 ) ) ;
#102 = EDGE_LOOP ( 'NONE', ( #80 ) ) ;
#103 = PRODUCT_RELATED_PRODUCT_CATEGORY ( 'detail', '', ( #33 ) ) ;
#104 = ORIENTED_EDGE ( 'NONE', *, *, #29, .F. ) ;
#105 = APPLICATION_CONTEXT ( 'configuration controlled 3d designs of mechanical parts and assemblies' ) ;
#106 = CARTESIAN_POINT ( 'NONE',  ( 2.076914702194665076E-15, -7.284836134875442972E-17, 0.5948520128372873916 ) ) ;
#107 = ADVANCED_FACE ( 'NONE', ( #210 ), #191, .F. ) ;
#108 = CC_DESIGN_SECURITY_CLASSIFICATION ( #212, ( #112 ) ) ;
#109 = DATE_AND_TIME ( #141, #32 ) ;
#110 = DIRECTION ( 'NONE',  ( 3.491481338843133355E-15, -1.224646799147353207E-16, 1.000000000000000000 ) ) ;
#111 = CC_DESIGN_PERSON_AND_ORGANIZATION_ASSIGNMENT ( #135, #98, ( #212 ) ) ;
#112 = PRODUCT_DEFINITION_FORMATION_WITH_SPECIFIED_SOURCE ( 'ANY', '', #33, .NOT_KNOWN. ) ;
#113 = APPROVAL_ROLE ( '' ) ;
#114 = DATE_AND_TIME ( #117, #174 ) ;
#115 =( NAMED_UNIT ( * ) SI_UNIT ( $, .STERADIAN. ) SOLID_ANGLE_UNIT ( ) );
#116 =( NAMED_UNIT ( * ) PLANE_ANGLE_UNIT ( ) SI_UNIT ( $, .RADIAN. ) );
#117 = CALENDAR_DATE ( 2021, 8, 10 ) ;
#118 = DIRECTION ( 'NONE',  ( 0.0000000000000000000, 1.000000000000000000, 0.0000000000000000000 ) ) ;
#119 = VERTEX_POINT ( 'NONE', #131 ) ;
#120 = EDGE_LOOP ( 'NONE', ( #223 ) ) ;
#121 = EDGE_LOOP ( 'NONE', ( #194 ) ) ;
#122 = CC_DESIGN_DATE_AND_TIME_ASSIGNMENT ( #109, #43, ( #212 ) ) ;
#123 = DIRECTION ( 'NONE',  ( -3.491481338843133355E-15, 1.224646799147353207E-16, -1.000000000000000000 ) ) ;
#124 = FACE_BOUND ( 'NONE', #162, .T. ) ;
#125 = APPROVAL ( #88, 'UNSPECIFIED' ) ;
#126 = CARTESIAN_POINT ( 'NONE',  ( 1.326762908760390423E-13, -4.653657836759941941E-15, 38.00000000000000000 ) ) ;
#127 = DIRECTION ( 'NONE',  ( -3.491481338843133355E-15, 1.224646799147353207E-16, -1.000000000000000000 ) ) ;
#128 = CONICAL_SURFACE ( 'NONE', #89, 0.9999999999999970024, 0.5235987755983326775 ) ;
#129 = CARTESIAN_POINT ( 'NONE',  ( 2.076914702194665076E-15, -7.284836134875442972E-17, 0.5948520128372873916 ) ) ;
#130 = PLANE ( 'NONE',  #35 ) ;
#131 = CARTESIAN_POINT ( 'NONE',  ( 1.319779946082704535E-13, 0.9999999999999947820, 37.79999999999999716 ) ) ;
#132 = PERSON_AND_ORGANIZATION ( #49, #6 ) ;
#133 = APPROVAL_ROLE ( '' ) ;
#134 = EDGE_CURVE ( 'NONE', #84, #84, #38, .T. ) ;
#135 = PERSON_AND_ORGANIZATION ( #49, #6 ) ;
#136 = SHAPE_DEFINITION_REPRESENTATION ( #178, #150 ) ;
#137 = DIRECTION ( 'NONE',  ( -3.491481338843133355E-15, 1.224646799147353207E-16, -1.000000000000000000 ) ) ;
#138 = DIRECTION ( 'NONE',  ( 3.491481338843133355E-15, -1.224646799147353207E-16, 1.000000000000000000 ) ) ;
#139 = APPROVAL_PERSON_ORGANIZATION ( #53, #125, #133 ) ;
#140 = MANIFOLD_SOLID_BREP ( 'Corps-Déplacer/Copier1[2]', #63 ) ;
#141 = CALENDAR_DATE ( 2021, 8, 10 ) ;
#142 = DIRECTION ( 'NONE',  ( 4.275831445896958607E-31, 1.000000000000000000, 1.224646799147353454E-16 ) ) ;
#143 = ORIENTED_EDGE ( 'NONE', *, *, #151, .F. ) ;
#144 = ORIENTED_EDGE ( 'NONE', *, *, #169, .F. ) ;
#145 = CONICAL_SURFACE ( 'NONE', #202, 0.9899999999999934408, 1.029744258676649649 ) ;
#146 = CARTESIAN_POINT ( 'NONE',  ( 4.195825029684316297E-14, 0.9999999999999954481, 12.01732050807569330 ) ) ;
#147 = EDGE_LOOP ( 'NONE', ( #64 ) ) ;
#148 = ADVANCED_FACE ( 'NONE', ( #220, #66 ), #128, .T. ) ;
#149 = DIRECTION ( 'NONE',  ( -3.491481338843133355E-15, 1.224646799147353207E-16, -1.000000000000000000 ) ) ;
#150 = ADVANCED_BREP_SHAPE_REPRESENTATION ( '57892', ( #57, #140, #25 ), #156 ) ;
#151 = EDGE_CURVE ( 'NONE', #90, #90, #19, .T. ) ;
#152 = FACE_OUTER_BOUND ( 'NONE', #209, .T. ) ;
#153 = CC_DESIGN_PERSON_AND_ORGANIZATION_ASSIGNMENT ( #184, #9, ( #77 ) ) ;
#154 = DIRECTION ( 'NONE',  ( -3.491481338843133355E-15, 1.224646799147353207E-16, -1.000000000000000000 ) ) ;
#155 = APPROVAL_DATE_TIME ( #114, #3 ) ;
#156 =( GEOMETRIC_REPRESENTATION_CONTEXT ( 3 ) GLOBAL_UNCERTAINTY_ASSIGNED_CONTEXT ( ( #92 ) ) GLOBAL_UNIT_ASSIGNED_CONTEXT ( ( #166, #116, #115 ) ) REPRESENTATION_CONTEXT ( 'NONE', 'WORKASPACE' ) );
#157 = DATE_AND_TIME ( #24, #82 ) ;
#158 = FACE_OUTER_BOUND ( 'NONE', #147, .T. ) ;
#159 = DIRECTION ( 'NONE',  ( 0.0000000000000000000, 1.000000000000000000, 0.0000000000000000000 ) ) ;
#160 = ORIENTED_EDGE ( 'NONE', *, *, #195, .F. ) ;
#161 = AXIS2_PLACEMENT_3D ( 'NONE', #79, #207, #142 ) ;
#162 = EDGE_LOOP ( 'NONE', ( #48 ) ) ;
#163 = ORIENTED_EDGE ( 'NONE', *, *, #134, .F. ) ;
#164 = ADVANCED_FACE ( 'NONE', ( #152 ), #145, .T. ) ;
#165 = LOCAL_TIME ( 7, 16, 0.0000000000000000000, #60 ) ;
#166 =( LENGTH_UNIT ( ) NAMED_UNIT ( * ) SI_UNIT ( .MILLI., .METRE. ) );
#167 = ADVANCED_FACE ( 'NONE', ( #72 ), #130, .F. ) ;
#168 = AXIS2_PLACEMENT_3D ( 'NONE', #12, #123, #159 ) ;
#169 = EDGE_CURVE ( 'NONE', #93, #93, #8, .T. ) ;
#170 = CARTESIAN_POINT ( 'NONE',  ( 4.195825029684316297E-14, -1.471697309454274430E-15, 12.01732050807569330 ) ) ;
#171 = AXIS2_PLACEMENT_3D ( 'NONE', #26, #51, #100 ) ;
#172 = FACE_OUTER_BOUND ( 'NONE', #28, .T. ) ;
#173 = DIRECTION ( 'NONE',  ( 3.491481338843133355E-15, -1.224646799147353207E-16, 1.000000000000000000 ) ) ;
#174 = LOCAL_TIME ( 7, 16, 0.0000000000000000000, #203 ) ;
#175 = CC_DESIGN_PERSON_AND_ORGANIZATION_ASSIGNMENT ( #22, #206, ( #112 ) ) ;
#176 = DIRECTION ( 'NONE',  ( 0.0000000000000000000, 1.000000000000000000, 0.0000000000000000000 ) ) ;
#177 = DIRECTION ( 'NONE',  ( 0.0000000000000000000, -1.000000000000000000, 0.0000000000000000000 ) ) ;
#178 = PRODUCT_DEFINITION_SHAPE ( 'NONE', 'NONE',  #77 ) ;
#179 = CLOSED_SHELL ( 'NONE', ( #107, #148, #217, #87, #167 ) ) ;
#180 = APPLICATION_PROTOCOL_DEFINITION ( 'international standard', 'config_control_design', 1994, #105 ) ;
#181 = CARTESIAN_POINT ( 'NONE',  ( 1.326762908760390423E-13, 0.7999999999999949374, 38.00000000000000000 ) ) ;
#182 = COORDINATED_UNIVERSAL_TIME_OFFSET ( 1, 0, .AHEAD. ) ;
#183 = CARTESIAN_POINT ( 'NONE',  ( 4.195825029684316297E-14, -1.471697309454274430E-15, 12.01732050807569330 ) ) ;
#184 = PERSON_AND_ORGANIZATION ( #49, #6 ) ;
#185 = DIRECTION ( 'NONE',  ( -3.890767564418683918E-31, -1.000000000000000000, -1.095153709581324824E-16 ) ) ;
#186 = CC_DESIGN_APPROVAL ( #125, ( #77 ) ) ;
#187 = APPROVAL_ROLE ( '' ) ;
#188 = CYLINDRICAL_SURFACE ( 'NONE', #161, 0.9899999999999934408 ) ;
#189 = CC_DESIGN_DATE_AND_TIME_ASSIGNMENT ( #157, #39, ( #77 ) ) ;
#190 = VERTEX_POINT ( 'NONE', #65 ) ;
#191 = PLANE ( 'NONE',  #171 ) ;
#192 = LOCAL_TIME ( 7, 16, 0.0000000000000000000, #182 ) ;
#193 = APPROVAL ( #94, 'UNSPECIFIED' ) ;
#194 = ORIENTED_EDGE ( 'NONE', *, *, #169, .T. ) ;
#195 = EDGE_CURVE ( 'NONE', #85, #85, #215, .T. ) ;
#196 = CARTESIAN_POINT ( 'NONE',  ( 0.0000000000000000000, 0.0000000000000000000, 0.0000000000000000000 ) ) ;
#197 = AXIS2_PLACEMENT_3D ( 'NONE', #15, #149, #198 ) ;
#198 = DIRECTION ( 'NONE',  ( 0.0000000000000000000, 1.000000000000000000, 0.0000000000000000000 ) ) ;
#199 = DIRECTION ( 'NONE',  ( 0.0000000000000000000, 1.000000000000000000, 0.0000000000000000000 ) ) ;
#200 = AXIS2_PLACEMENT_3D ( 'NONE', #101, #173, #52 ) ;
#201 = MECHANICAL_CONTEXT ( 'NONE', #105, 'mechanical' ) ;
#202 = AXIS2_PLACEMENT_3D ( 'NONE', #106, #110, #185 ) ;
#203 = COORDINATED_UNIVERSAL_TIME_OFFSET ( 1, 0, .AHEAD. ) ;
#204 = COORDINATED_UNIVERSAL_TIME_OFFSET ( 1, 0, .AHEAD. ) ;
#205 = ADVANCED_FACE ( 'NONE', ( #36, #27 ), #188, .T. ) ;
#206 = PERSON_AND_ORGANIZATION_ROLE ( 'creator' ) ;
#207 = DIRECTION ( 'NONE',  ( -3.491481338843133355E-15, 1.224646799147353207E-16, -1.000000000000000000 ) ) ;
#208 = DATE_AND_TIME ( #59, #165 ) ;
#209 = EDGE_LOOP ( 'NONE', ( #45 ) ) ;
#210 = FACE_OUTER_BOUND ( 'NONE', #102, .T. ) ;
#211 = FACE_OUTER_BOUND ( 'NONE', #222, .T. ) ;
#212 = SECURITY_CLASSIFICATION ( '', '', #216 ) ;
#213 = DIRECTION ( 'NONE',  ( 0.0000000000000000000, 0.0000000000000000000, 1.000000000000000000 ) ) ;
#214 = AXIS2_PLACEMENT_3D ( 'NONE', #196, #154, #46 ) ;
#215 = CIRCLE ( 'NONE', #2, 0.7999999999999996003 ) ;
#216 = SECURITY_CLASSIFICATION_LEVEL ( 'unclassified' ) ;
#217 = ADVANCED_FACE ( 'NONE', ( #76, #158 ), #1, .T. ) ;
#218 = CIRCLE ( 'NONE', #54, 0.9899999999999932188 ) ;
#219 = CARTESIAN_POINT ( 'NONE',  ( 0.0000000000000000000, 0.0000000000000000000, 0.0000000000000000000 ) ) ;
#220 = FACE_BOUND ( 'NONE', #13, .T. ) ;
#221 = CALENDAR_DATE ( 2021, 8, 10 ) ;
#222 = EDGE_LOOP ( 'NONE', ( #104 ) ) ;
#223 = ORIENTED_EDGE ( 'NONE', *, *, #29, .T. ) ;
ENDSEC;
END-ISO-10303-21;
