ISO-10303-21;
HEADER;
FILE_DESCRIPTION (( 'STEP AP203' ),
    '1' );
FILE_NAME ('57890.step',
    '2021-10-08T05:16:00',
    ( '' ),
    ( '' ),
    'SwSTEP 2.0',
    'SolidWorks 2019',
    '' );
FILE_SCHEMA (( 'CONFIG_CONTROL_DESIGN' ));
ENDSEC;

DATA;
#1 = PERSON_AND_ORGANIZATION ( #119, #49 ) ;
#2 = ORIENTED_EDGE ( 'NONE', *, *, #151, .T. ) ;
#3 = ORIENTED_EDGE ( 'NONE', *, *, #25, .T. ) ;
#4 = AXIS2_PLACEMENT_3D ( 'NONE', #212, #40, #74 ) ;
#5 = DIRECTION ( 'NONE',  ( 3.491481338843133355E-15, -1.224646799147353207E-16, 1.000000000000000000 ) ) ;
#6 = DIRECTION ( 'NONE',  ( -3.491481338843133355E-15, 1.224646799147353207E-16, -1.000000000000000000 ) ) ;
#7 = DIRECTION ( 'NONE',  ( 0.0000000000000000000, 1.000000000000000000, 0.0000000000000000000 ) ) ;
#8 = AXIS2_PLACEMENT_3D ( 'NONE', #132, #16, #54 ) ;
#9 = DIRECTION ( 'NONE',  ( -3.491481338843133355E-15, 1.224646799147353207E-16, -1.000000000000000000 ) ) ;
#10 = FACE_OUTER_BOUND ( 'NONE', #124, .T. ) ;
#11 = CONICAL_SURFACE ( 'NONE', #166, 0.7999999999999996003, 0.7853981633974507215 ) ;
#12 = VERTEX_POINT ( 'NONE', #84 ) ;
#13 = CC_DESIGN_APPROVAL ( #32, ( #117 ) ) ;
#14 = CALENDAR_DATE ( 2021, 8, 10 ) ;
#15 = EDGE_CURVE ( 'NONE', #101, #101, #128, .T. ) ;
#16 = DIRECTION ( 'NONE',  ( 0.0000000000000000000, 0.0000000000000000000, 1.000000000000000000 ) ) ;
#17 = DATE_AND_TIME ( #14, #183 ) ;
#18 = DIRECTION ( 'NONE',  ( 3.491481338843133355E-15, -1.224646799147353207E-16, 1.000000000000000000 ) ) ;
#19 = AXIS2_PLACEMENT_3D ( 'NONE', #95, #180, #162 ) ;
#20 = EDGE_LOOP ( 'NONE', ( #3 ) ) ;
#21 = FACE_OUTER_BOUND ( 'NONE', #71, .T. ) ;
#22 = AXIS2_PLACEMENT_3D ( 'NONE', #114, #9, #24 ) ;
#23 = ORIENTED_EDGE ( 'NONE', *, *, #15, .T. ) ;
#24 = DIRECTION ( 'NONE',  ( 0.0000000000000000000, 1.000000000000000000, 0.0000000000000000000 ) ) ;
#25 = EDGE_CURVE ( 'NONE', #12, #12, #146, .T. ) ;
#26 = DIRECTION ( 'NONE',  ( -3.491481338843133355E-15, 1.224646799147353207E-16, -1.000000000000000000 ) ) ;
#27 = CARTESIAN_POINT ( 'NONE',  ( 0.0000000000000000000, 0.0000000000000000000, 0.0000000000000000000 ) ) ;
#28 = APPROVAL ( #36, 'UNSPECIFIED' ) ;
#29 = CIRCLE ( 'NONE', #19, 0.9599999999999935252 ) ;
#30 = VERTEX_POINT ( 'NONE', #133 ) ;
#31 =( LENGTH_UNIT ( ) NAMED_UNIT ( * ) SI_UNIT ( .MILLI., .METRE. ) );
#32 = APPROVAL ( #83, 'UNSPECIFIED' ) ;
#33 = AXIS2_PLACEMENT_3D ( 'NONE', #182, #6, #80 ) ;
#34 =( NAMED_UNIT ( * ) SI_UNIT ( $, .STERADIAN. ) SOLID_ANGLE_UNIT ( ) );
#35 = PRODUCT_DEFINITION_SHAPE ( 'NONE', 'NONE',  #68 ) ;
#36 = APPROVAL_STATUS ( 'not_yet_approved' ) ;
#37 = ADVANCED_FACE ( 'NONE', ( #90 ), #108, .T. ) ;
#38 = DIRECTION ( 'NONE',  ( 0.0000000000000000000, 1.000000000000000000, 0.0000000000000000000 ) ) ;
#39 = LOCAL_TIME ( 7, 16, 0.0000000000000000000, #66 ) ;
#40 = DIRECTION ( 'NONE',  ( -3.491481338843133355E-15, 1.224646799147353207E-16, -1.000000000000000000 ) ) ;
#41 = ADVANCED_FACE ( 'NONE', ( #170 ), #172, .T. ) ;
#42 = CLOSED_SHELL ( 'NONE', ( #41, #44, #37 ) ) ;
#43 = DIRECTION ( 'NONE',  ( -3.491481338843133355E-15, 1.224646799147353207E-16, -1.000000000000000000 ) ) ;
#44 = ADVANCED_FACE ( 'NONE', ( #107, #21 ), #139, .T. ) ;
#45 = CARTESIAN_POINT ( 'NONE',  ( 1.326762908760390423E-13, 5.999039130647358587E-33, 38.00000000000000000 ) ) ;
#46 = DIRECTION ( 'NONE',  ( -3.491481338843133355E-15, 1.224646799147353207E-16, -1.000000000000000000 ) ) ;
#47 = APPLICATION_CONTEXT ( 'configuration controlled 3d designs of mechanical parts and assemblies' ) ;
#48 = MECHANICAL_CONTEXT ( 'NONE', #97, 'mechanical' ) ;
#49 = ORGANIZATION ( 'UNSPECIFIED', 'UNSPECIFIED', '' ) ;
#50 = APPROVAL_DATE_TIME ( #153, #32 ) ;
#51 = DATE_TIME_ROLE ( 'classification_date' ) ;
#52 = PERSON_AND_ORGANIZATION ( #119, #49 ) ;
#53 = MANIFOLD_SOLID_BREP ( 'Corps-Déplacer/Copier1[2]', #42 ) ;
#54 = DIRECTION ( 'NONE',  ( 1.000000000000000000, 0.0000000000000000000, 0.0000000000000000000 ) ) ;
#55 = ORIENTED_EDGE ( 'NONE', *, *, #64, .T. ) ;
#56 = APPROVAL_ROLE ( '' ) ;
#57 = ORIENTED_EDGE ( 'NONE', *, *, #15, .F. ) ;
#58 = CARTESIAN_POINT ( 'NONE',  ( 4.189777606611760026E-14, 7.198846956776858221E-33, 12.00000000000000000 ) ) ;
#59 = FACE_OUTER_BOUND ( 'NONE', #20, .T. ) ;
#60 = DIRECTION ( 'NONE',  ( -4.275831445896958607E-31, -1.000000000000000000, -1.224646799147353207E-16 ) ) ;
#61 = FACE_OUTER_BOUND ( 'NONE', #111, .T. ) ;
#62 = CALENDAR_DATE ( 2021, 8, 10 ) ;
#63 = APPLICATION_PROTOCOL_DEFINITION ( 'international standard', 'config_control_design', 1994, #47 ) ;
#64 = EDGE_CURVE ( 'NONE', #30, #30, #29, .T. ) ;
#65 = LOCAL_TIME ( 7, 16, 0.0000000000000000000, #104 ) ;
#66 = COORDINATED_UNIVERSAL_TIME_OFFSET ( 1, 0, .AHEAD. ) ;
#67 = PERSON_AND_ORGANIZATION_ROLE ( 'creator' ) ;
#68 = PRODUCT_DEFINITION ( 'UNKNOWN', '', #117, #136 ) ;
#69 = AXIS2_PLACEMENT_3D ( 'NONE', #45, #26, #93 ) ;
#70 = DIRECTION ( 'NONE',  ( -4.012354050806768803E-31, -1.000000000000000000, -1.129377263005741510E-16 ) ) ;
#71 = EDGE_LOOP ( 'NONE', ( #193 ) ) ;
#72 = APPROVAL_PERSON_ORGANIZATION ( #126, #102, #56 ) ;
#73 = COORDINATED_UNIVERSAL_TIME_OFFSET ( 1, 0, .AHEAD. ) ;
#74 = DIRECTION ( 'NONE',  ( 0.0000000000000000000, 1.000000000000000000, 0.0000000000000000000 ) ) ;
#75 = SHAPE_DEFINITION_REPRESENTATION ( #35, #210 ) ;
#76 = EDGE_CURVE ( 'NONE', #98, #98, #169, .T. ) ;
#77 = FACE_OUTER_BOUND ( 'NONE', #192, .T. ) ;
#78 = DIRECTION ( 'NONE',  ( 4.275831445896957731E-31, 1.000000000000000000, 1.224646799147353207E-16 ) ) ;
#79 = AXIS2_PLACEMENT_3D ( 'NONE', #160, #189, #38 ) ;
#80 = DIRECTION ( 'NONE',  ( 4.275831445896958607E-31, 1.000000000000000000, 1.224646799147353207E-16 ) ) ;
#81 = CYLINDRICAL_SURFACE ( 'NONE', #33, 0.9999999999999983347 ) ;
#82 = EDGE_CURVE ( 'NONE', #118, #118, #218, .T. ) ;
#83 = APPROVAL_STATUS ( 'not_yet_approved' ) ;
#84 = CARTESIAN_POINT ( 'NONE',  ( 4.189777606611760026E-14, 0.9599999999999938582, 12.00000000000000000 ) ) ;
#85 = PERSON_AND_ORGANIZATION ( #119, #49 ) ;
#86 = DATE_AND_TIME ( #62, #39 ) ;
#87 = EDGE_LOOP ( 'NONE', ( #23 ) ) ;
#88 = AXIS2_PLACEMENT_3D ( 'NONE', #145, #215, #129 ) ;
#89 = ORIENTED_EDGE ( 'NONE', *, *, #64, .F. ) ;
#90 = FACE_OUTER_BOUND ( 'NONE', #157, .T. ) ;
#91 = ADVANCED_FACE ( 'NONE', ( #10, #195 ), #81, .T. ) ;
#92 = CARTESIAN_POINT ( 'NONE',  ( 4.189777606611760026E-14, 7.198846956776858221E-33, 12.00000000000000000 ) ) ;
#93 = DIRECTION ( 'NONE',  ( 4.275831445896958607E-31, 1.000000000000000000, 1.224646799147353207E-16 ) ) ;
#94 = DATE_AND_TIME ( #147, #65 ) ;
#95 = CARTESIAN_POINT ( 'NONE',  ( 2.013977893037249800E-15, -7.064083524727699026E-17, 0.5768261942664602016 ) ) ;
#96 = CC_DESIGN_DATE_AND_TIME_ASSIGNMENT ( #86, #185, ( #68 ) ) ;
#97 = APPLICATION_CONTEXT ( 'configuration controlled 3d designs of mechanical parts and assemblies' ) ;
#98 = VERTEX_POINT ( 'NONE', #103 ) ;
#99 = APPROVAL_ROLE ( '' ) ;
#100 = LOCAL_TIME ( 7, 16, 0.0000000000000000000, #73 ) ;
#101 = VERTEX_POINT ( 'NONE', #206 ) ;
#102 = APPROVAL ( #123, 'UNSPECIFIED' ) ;
#103 = CARTESIAN_POINT ( 'NONE',  ( 4.189777606611760026E-14, 0.9599999999999938582, 12.00000000000000000 ) ) ;
#104 = COORDINATED_UNIVERSAL_TIME_OFFSET ( 1, 0, .AHEAD. ) ;
#105 = DIRECTION ( 'NONE',  ( -4.275831445896958607E-31, -1.000000000000000000, -1.224646799147353207E-16 ) ) ;
#106 = CC_DESIGN_PERSON_AND_ORGANIZATION_ASSIGNMENT ( #109, #154, ( #199 ) ) ;
#107 = FACE_OUTER_BOUND ( 'NONE', #207, .T. ) ;
#108 = PLANE ( 'NONE',  #112 ) ;
#109 = PERSON_AND_ORGANIZATION ( #119, #49 ) ;
#110 = ADVANCED_FACE ( 'NONE', ( #77, #143 ), #11, .T. ) ;
#111 = EDGE_LOOP ( 'NONE', ( #2 ) ) ;
#112 = AXIS2_PLACEMENT_3D ( 'NONE', #58, #5, #105 ) ;
#113 = PLANE ( 'NONE',  #220 ) ;
#114 = CARTESIAN_POINT ( 'NONE',  ( 1.319779946082704535E-13, -4.629164900776995227E-15, 37.79999999999999716 ) ) ;
#115 = ADVANCED_FACE ( 'NONE', ( #59 ), #113, .F. ) ;
#116 = DIRECTION ( 'NONE',  ( -3.491481338843133355E-15, 1.224646799147353207E-16, -1.000000000000000000 ) ) ;
#117 = PRODUCT_DEFINITION_FORMATION_WITH_SPECIFIED_SOURCE ( 'ANY', '', #171, .NOT_KNOWN. ) ;
#118 = VERTEX_POINT ( 'NONE', #201 ) ;
#119 = PERSON ( 'UNSPECIFIED', 'UNSPECIFIED', 'UNSPECIFIED', ('UNSPECIFIED'), ('UNSPECIFIED'), ('UNSPECIFIED') ) ;
#120 = PERSON_AND_ORGANIZATION_ROLE ( 'design_supplier' ) ;
#121 = APPROVAL_PERSON_ORGANIZATION ( #85, #32, #150 ) ;
#122 = EDGE_LOOP ( 'NONE', ( #55 ) ) ;
#123 = APPROVAL_STATUS ( 'not_yet_approved' ) ;
#124 = EDGE_LOOP ( 'NONE', ( #208 ) ) ;
#125 = MANIFOLD_SOLID_BREP ( 'Corps-Déplacer/Copier1[1]', #156 ) ;
#126 = PERSON_AND_ORGANIZATION ( #119, #49 ) ;
#127 = CARTESIAN_POINT ( 'NONE',  ( 4.213967298901981954E-14, -1.478060760886623907E-15, 12.06928203230276253 ) ) ;
#128 = CIRCLE ( 'NONE', #4, 0.7999999999999996003 ) ;
#129 = DIRECTION ( 'NONE',  ( 0.0000000000000000000, -1.000000000000000000, 0.0000000000000000000 ) ) ;
#130 = DIRECTION ( 'NONE',  ( 0.0000000000000000000, 1.000000000000000000, 0.0000000000000000000 ) ) ;
#131 = CC_DESIGN_APPROVAL ( #102, ( #199 ) ) ;
#132 = CARTESIAN_POINT ( 'NONE',  ( 0.0000000000000000000, 0.0000000000000000000, 0.0000000000000000000 ) ) ;
#133 = CARTESIAN_POINT ( 'NONE',  ( 2.013977893037250194E-15, 0.9599999999999934142, 0.5768261942664603126 ) ) ;
#134 = CC_DESIGN_APPROVAL ( #28, ( #68 ) ) ;
#135 = COORDINATED_UNIVERSAL_TIME_OFFSET ( 1, 0, .AHEAD. ) ;
#136 = DESIGN_CONTEXT ( 'detailed design', #47, 'design' ) ;
#137 = APPLICATION_PROTOCOL_DEFINITION ( 'international standard', 'config_control_design', 1994, #97 ) ;
#138 = CARTESIAN_POINT ( 'NONE',  ( 4.213967298901981954E-14, 0.9999999999999954481, 12.06928203230276253 ) ) ;
#139 = CYLINDRICAL_SURFACE ( 'NONE', #141, 0.9599999999999945244 ) ;
#140 = DATE_AND_TIME ( #200, #100 ) ;
#141 = AXIS2_PLACEMENT_3D ( 'NONE', #27, #116, #78 ) ;
#142 = CARTESIAN_POINT ( 'NONE',  ( 2.013977893037249800E-15, -7.064083524727699026E-17, 0.5768261942664602016 ) ) ;
#143 = FACE_BOUND ( 'NONE', #87, .T. ) ;
#144 = UNCERTAINTY_MEASURE_WITH_UNIT (LENGTH_MEASURE( 1.000000000000000082E-05 ), #31, 'distance_accuracy_value', 'NONE');
#145 = CARTESIAN_POINT ( 'NONE',  ( 4.213967298901981954E-14, -1.478060760886623907E-15, 12.06928203230276253 ) ) ;
#146 = CIRCLE ( 'NONE', #79, 0.9599999999999954126 ) ;
#147 = CALENDAR_DATE ( 2021, 8, 10 ) ;
#148 = CARTESIAN_POINT ( 'NONE',  ( 1.326762908760390423E-13, -4.653657836759941941E-15, 38.00000000000000000 ) ) ;
#149 = CC_DESIGN_SECURITY_CLASSIFICATION ( #199, ( #117 ) ) ;
#150 = APPROVAL_ROLE ( '' ) ;
#151 = EDGE_CURVE ( 'NONE', #204, #204, #209, .T. ) ;
#152 = APPROVAL_PERSON_ORGANIZATION ( #188, #28, #99 ) ;
#153 = DATE_AND_TIME ( #203, #163 ) ;
#154 = PERSON_AND_ORGANIZATION_ROLE ( 'classification_officer' ) ;
#155 = PERSON_AND_ORGANIZATION ( #119, #49 ) ;
#156 = CLOSED_SHELL ( 'NONE', ( #115, #179, #91, #110, #223 ) ) ;
#157 = EDGE_LOOP ( 'NONE', ( #178 ) ) ;
#158 = ORIENTED_EDGE ( 'NONE', *, *, #82, .F. ) ;
#159 = CONICAL_SURFACE ( 'NONE', #88, 0.9999999999999970024, 0.5235987755982761671 ) ;
#160 = CARTESIAN_POINT ( 'NONE',  ( 4.189777606611760026E-14, -1.469576158976823947E-15, 12.00000000000000000 ) ) ;
#161 = DIRECTION ( 'NONE',  ( 3.491481338843133355E-15, -1.224646799147353207E-16, 1.000000000000000000 ) ) ;
#162 = DIRECTION ( 'NONE',  ( 4.012354050806768803E-31, 1.000000000000000000, 1.129377263005741510E-16 ) ) ;
#163 = LOCAL_TIME ( 7, 16, 0.0000000000000000000, #135 ) ;
#164 = CARTESIAN_POINT ( 'NONE',  ( 4.189777606611760026E-14, -1.469576158976823947E-15, 12.00000000000000000 ) ) ;
#165 = CC_DESIGN_PERSON_AND_ORGANIZATION_ASSIGNMENT ( #155, #167, ( #171 ) ) ;
#166 = AXIS2_PLACEMENT_3D ( 'NONE', #148, #213, #130 ) ;
#167 = PERSON_AND_ORGANIZATION_ROLE ( 'design_owner' ) ;
#168 = COORDINATED_UNIVERSAL_TIME_OFFSET ( 1, 0, .AHEAD. ) ;
#169 = CIRCLE ( 'NONE', #177, 0.9599999999999954126 ) ;
#170 = FACE_OUTER_BOUND ( 'NONE', #122, .T. ) ;
#171 = PRODUCT ( '57890', '57890', '', ( #48 ) ) ;
#172 = CONICAL_SURFACE ( 'NONE', #202, 0.9599999999999935252, 1.029744258676649649 ) ;
#173 = ORIENTED_EDGE ( 'NONE', *, *, #82, .T. ) ;
#174 = EDGE_LOOP ( 'NONE', ( #57 ) ) ;
#175 = CC_DESIGN_PERSON_AND_ORGANIZATION_ASSIGNMENT ( #52, #120, ( #117 ) ) ;
#176 = ORIENTED_EDGE ( 'NONE', *, *, #25, .F. ) ;
#177 = AXIS2_PLACEMENT_3D ( 'NONE', #164, #46, #197 ) ;
#178 = ORIENTED_EDGE ( 'NONE', *, *, #76, .F. ) ;
#179 = ADVANCED_FACE ( 'NONE', ( #216, #61 ), #159, .T. ) ;
#180 = DIRECTION ( 'NONE',  ( -3.491481338843133355E-15, 1.224646799147353207E-16, -1.000000000000000000 ) ) ;
#181 = FACE_OUTER_BOUND ( 'NONE', #174, .T. ) ;
#182 = CARTESIAN_POINT ( 'NONE',  ( 0.0000000000000000000, 0.0000000000000000000, 0.0000000000000000000 ) ) ;
#183 = LOCAL_TIME ( 7, 16, 0.0000000000000000000, #168 ) ;
#184 = CC_DESIGN_PERSON_AND_ORGANIZATION_ASSIGNMENT ( #222, #67, ( #117 ) ) ;
#185 = DATE_TIME_ROLE ( 'creation_date' ) ;
#186 =( NAMED_UNIT ( * ) PLANE_ANGLE_UNIT ( ) SI_UNIT ( $, .RADIAN. ) );
#187 = APPROVAL_DATE_TIME ( #17, #28 ) ;
#188 = PERSON_AND_ORGANIZATION ( #119, #49 ) ;
#189 = DIRECTION ( 'NONE',  ( -3.491481338843133355E-15, 1.224646799147353207E-16, -1.000000000000000000 ) ) ;
#190 = EDGE_LOOP ( 'NONE', ( #173 ) ) ;
#191 = AXIS2_PLACEMENT_3D ( 'NONE', #127, #43, #7 ) ;
#192 = EDGE_LOOP ( 'NONE', ( #158 ) ) ;
#193 = ORIENTED_EDGE ( 'NONE', *, *, #76, .T. ) ;
#194 = SECURITY_CLASSIFICATION_LEVEL ( 'unclassified' ) ;
#195 = FACE_OUTER_BOUND ( 'NONE', #190, .T. ) ;
#196 = PLANE ( 'NONE',  #69 ) ;
#197 = DIRECTION ( 'NONE',  ( 0.0000000000000000000, 1.000000000000000000, 0.0000000000000000000 ) ) ;
#198 = CC_DESIGN_PERSON_AND_ORGANIZATION_ASSIGNMENT ( #1, #221, ( #68 ) ) ;
#199 = SECURITY_CLASSIFICATION ( '', '', #194 ) ;
#200 = CALENDAR_DATE ( 2021, 8, 10 ) ;
#201 = CARTESIAN_POINT ( 'NONE',  ( 1.319779946082704535E-13, 0.9999999999999947820, 37.79999999999999716 ) ) ;
#202 = AXIS2_PLACEMENT_3D ( 'NONE', #142, #18, #70 ) ;
#203 = CALENDAR_DATE ( 2021, 8, 10 ) ;
#204 = VERTEX_POINT ( 'NONE', #138 ) ;
#205 = APPROVAL_DATE_TIME ( #140, #102 ) ;
#206 = CARTESIAN_POINT ( 'NONE',  ( 1.326762908760390423E-13, 0.7999999999999949374, 38.00000000000000000 ) ) ;
#207 = EDGE_LOOP ( 'NONE', ( #89 ) ) ;
#208 = ORIENTED_EDGE ( 'NONE', *, *, #151, .F. ) ;
#209 = CIRCLE ( 'NONE', #191, 0.9999999999999970024 ) ;
#210 = ADVANCED_BREP_SHAPE_REPRESENTATION ( '57890', ( #125, #53, #8 ), #214 ) ;
#211 = EDGE_LOOP ( 'NONE', ( #176 ) ) ;
#212 = CARTESIAN_POINT ( 'NONE',  ( 1.326762908760390423E-13, -4.653657836759941941E-15, 38.00000000000000000 ) ) ;
#213 = DIRECTION ( 'NONE',  ( -3.491481338843133355E-15, 1.224646799147353207E-16, -1.000000000000000000 ) ) ;
#214 =( GEOMETRIC_REPRESENTATION_CONTEXT ( 3 ) GLOBAL_UNCERTAINTY_ASSIGNED_CONTEXT ( ( #144 ) ) GLOBAL_UNIT_ASSIGNED_CONTEXT ( ( #31, #186, #34 ) ) REPRESENTATION_CONTEXT ( 'NONE', 'WORKASPACE' ) );
#215 = DIRECTION ( 'NONE',  ( 3.491481338843133355E-15, -1.224646799147353207E-16, 1.000000000000000000 ) ) ;
#216 = FACE_BOUND ( 'NONE', #211, .T. ) ;
#217 = CC_DESIGN_DATE_AND_TIME_ASSIGNMENT ( #94, #51, ( #199 ) ) ;
#218 = CIRCLE ( 'NONE', #22, 0.9999999999999993339 ) ;
#219 = PRODUCT_RELATED_PRODUCT_CATEGORY ( 'detail', '', ( #171 ) ) ;
#220 = AXIS2_PLACEMENT_3D ( 'NONE', #92, #161, #60 ) ;
#221 = PERSON_AND_ORGANIZATION_ROLE ( 'creator' ) ;
#222 = PERSON_AND_ORGANIZATION ( #119, #49 ) ;
#223 = ADVANCED_FACE ( 'NONE', ( #181 ), #196, .F. ) ;
ENDSEC;
END-ISO-10303-21;
