ISO-10303-21;
HEADER;
FILE_DESCRIPTION (( 'STEP AP203' ),
    '1' );
FILE_NAME ('57888.step',
    '2021-10-08T05:15:59',
    ( '' ),
    ( '' ),
    'SwSTEP 2.0',
    'SolidWorks 2019',
    '' );
FILE_SCHEMA (( 'CONFIG_CONTROL_DESIGN' ));
ENDSEC;

DATA;
#1 = DIRECTION ( 'NONE',  ( -3.491481338843133355E-15, 1.224646799147353207E-16, -1.000000000000000000 ) ) ;
#2 = PLANE ( 'NONE',  #145 ) ;
#3 = APPROVAL_STATUS ( 'not_yet_approved' ) ;
#4 = VERTEX_POINT ( 'NONE', #211 ) ;
#5 = LOCAL_TIME ( 7, 15, 59.00000000000000000, #61 ) ;
#6 = APPLICATION_PROTOCOL_DEFINITION ( 'international standard', 'config_control_design', 1994, #45 ) ;
#7 = DATE_AND_TIME ( #180, #117 ) ;
#8 = ORIENTED_EDGE ( 'NONE', *, *, #181, .F. ) ;
#9 = EDGE_LOOP ( 'NONE', ( #126 ) ) ;
#10 = EDGE_CURVE ( 'NONE', #16, #16, #69, .T. ) ;
#11 = DIRECTION ( 'NONE',  ( -3.491481338843133355E-15, 1.224646799147353207E-16, -1.000000000000000000 ) ) ;
#12 = PLANE ( 'NONE',  #156 ) ;
#13 = DIRECTION ( 'NONE',  ( 0.0000000000000000000, 1.000000000000000000, 0.0000000000000000000 ) ) ;
#14 = FACE_OUTER_BOUND ( 'NONE', #21, .T. ) ;
#15 = DIRECTION ( 'NONE',  ( 0.0000000000000000000, -1.000000000000000000, 0.0000000000000000000 ) ) ;
#16 = VERTEX_POINT ( 'NONE', #51 ) ;
#17 = DATE_AND_TIME ( #34, #5 ) ;
#18 = PERSON_AND_ORGANIZATION ( #214, #57 ) ;
#19 = COORDINATED_UNIVERSAL_TIME_OFFSET ( 1, 0, .AHEAD. ) ;
#20 =( GEOMETRIC_REPRESENTATION_CONTEXT ( 3 ) GLOBAL_UNCERTAINTY_ASSIGNED_CONTEXT ( ( #179 ) ) GLOBAL_UNIT_ASSIGNED_CONTEXT ( ( #208, #159, #87 ) ) REPRESENTATION_CONTEXT ( 'NONE', 'WORKASPACE' ) );
#21 = EDGE_LOOP ( 'NONE', ( #39 ) ) ;
#22 = APPROVAL_PERSON_ORGANIZATION ( #193, #77, #175 ) ;
#23 = DIRECTION ( 'NONE',  ( -3.491481338843133355E-15, 1.224646799147353207E-16, -1.000000000000000000 ) ) ;
#24 = CARTESIAN_POINT ( 'NONE',  ( 4.189777606611760026E-14, 6.673931032845205595E-33, 12.00000000000000000 ) ) ;
#25 = CARTESIAN_POINT ( 'NONE',  ( 1.326762908760390423E-13, 5.999039130647358587E-33, 38.00000000000000000 ) ) ;
#26 = DIRECTION ( 'NONE',  ( -3.491481338843133355E-15, 1.224646799147353207E-16, -1.000000000000000000 ) ) ;
#27 = DIRECTION ( 'NONE',  ( 0.0000000000000000000, 1.000000000000000000, 0.0000000000000000000 ) ) ;
#28 = PRODUCT ( '57888', '57888', '', ( #102 ) ) ;
#29 = SECURITY_CLASSIFICATION_LEVEL ( 'unclassified' ) ;
#30 = CC_DESIGN_PERSON_AND_ORGANIZATION_ASSIGNMENT ( #158, #82, ( #157 ) ) ;
#31 = LOCAL_TIME ( 7, 15, 59.00000000000000000, #19 ) ;
#32 = CARTESIAN_POINT ( 'NONE',  ( 4.256299260409865753E-14, 0.9999999999999947820, 12.19052558883258008 ) ) ;
#33 = COORDINATED_UNIVERSAL_TIME_OFFSET ( 1, 0, .AHEAD. ) ;
#34 = CALENDAR_DATE ( 2021, 8, 10 ) ;
#35 = EDGE_LOOP ( 'NONE', ( #92 ) ) ;
#36 = ORIENTED_EDGE ( 'NONE', *, *, #129, .T. ) ;
#37 = APPROVAL_ROLE ( '' ) ;
#38 = EDGE_LOOP ( 'NONE', ( #54 ) ) ;
#39 = ORIENTED_EDGE ( 'NONE', *, *, #108, .F. ) ;
#40 = CC_DESIGN_PERSON_AND_ORGANIZATION_ASSIGNMENT ( #62, #119, ( #85 ) ) ;
#41 = CARTESIAN_POINT ( 'NONE',  ( 4.189777606611760026E-14, -1.469576158976823947E-15, 12.00000000000000000 ) ) ;
#42 = MANIFOLD_SOLID_BREP ( 'Corps-Déplacer/Copier1[2]', #74 ) ;
#43 = CYLINDRICAL_SURFACE ( 'NONE', #202, 0.8899999999999943512 ) ;
#44 = CARTESIAN_POINT ( 'NONE',  ( 0.0000000000000000000, 0.0000000000000000000, 0.0000000000000000000 ) ) ;
#45 = APPLICATION_CONTEXT ( 'configuration controlled 3d designs of mechanical parts and assemblies' ) ;
#46 = DIRECTION ( 'NONE',  ( 4.275831445896958607E-31, 1.000000000000000000, 1.224646799147353207E-16 ) ) ;
#47 = AXIS2_PLACEMENT_3D ( 'NONE', #95, #71, #206 ) ;
#48 = CYLINDRICAL_SURFACE ( 'NONE', #136, 0.9999999999999978906 ) ;
#49 = CARTESIAN_POINT ( 'NONE',  ( 4.189777606611760026E-14, 0.8899999999999932410, 12.00000000000000000 ) ) ;
#50 = ADVANCED_FACE ( 'NONE', ( #201 ), #171, .T. ) ;
#51 = CARTESIAN_POINT ( 'NONE',  ( 4.189777606611760026E-14, 0.8899999999999932410, 12.00000000000000000 ) ) ;
#52 = VERTEX_POINT ( 'NONE', #49 ) ;
#53 = AXIS2_PLACEMENT_3D ( 'NONE', #203, #184, #169 ) ;
#54 = ORIENTED_EDGE ( 'NONE', *, *, #129, .F. ) ;
#55 = AXIS2_PLACEMENT_3D ( 'NONE', #168, #56, #130 ) ;
#56 = DIRECTION ( 'NONE',  ( -3.491481338843133355E-15, 1.224646799147353207E-16, -1.000000000000000000 ) ) ;
#57 = ORGANIZATION ( 'UNSPECIFIED', 'UNSPECIFIED', '' ) ;
#58 = LOCAL_TIME ( 7, 15, 59.00000000000000000, #165 ) ;
#59 = PLANE ( 'NONE',  #200 ) ;
#60 = FACE_OUTER_BOUND ( 'NONE', #154, .T. ) ;
#61 = COORDINATED_UNIVERSAL_TIME_OFFSET ( 1, 0, .AHEAD. ) ;
#62 = PERSON_AND_ORGANIZATION ( #214, #57 ) ;
#63 = PERSON_AND_ORGANIZATION_ROLE ( 'design_owner' ) ;
#64 = CC_DESIGN_DATE_AND_TIME_ASSIGNMENT ( #17, #81, ( #157 ) ) ;
#65 = CARTESIAN_POINT ( 'NONE',  ( 1.319779946082704535E-13, 0.9999999999999947820, 37.79999999999999716 ) ) ;
#66 = COORDINATED_UNIVERSAL_TIME_OFFSET ( 1, 0, .AHEAD. ) ;
#67 = ADVANCED_FACE ( 'NONE', ( #14 ), #59, .F. ) ;
#68 = EDGE_LOOP ( 'NONE', ( #199 ) ) ;
#69 = CIRCLE ( 'NONE', #140, 0.8899999999999947953 ) ;
#70 = ORIENTED_EDGE ( 'NONE', *, *, #10, .T. ) ;
#71 = DIRECTION ( 'NONE',  ( 3.491481338843133355E-15, -1.224646799147353207E-16, 1.000000000000000000 ) ) ;
#72 = CARTESIAN_POINT ( 'NONE',  ( 4.256299260409865753E-14, -1.492908814228772356E-15, 12.19052558883258008 ) ) ;
#73 = ADVANCED_FACE ( 'NONE', ( #60 ), #12, .F. ) ;
#74 = CLOSED_SHELL ( 'NONE', ( #50, #88, #195 ) ) ;
#75 = DIRECTION ( 'NONE',  ( 3.491481338843133355E-15, -1.224646799147353207E-16, 1.000000000000000000 ) ) ;
#76 = FACE_BOUND ( 'NONE', #68, .T. ) ;
#77 = APPROVAL ( #101, 'UNSPECIFIED' ) ;
#78 = CARTESIAN_POINT ( 'NONE',  ( 1.867125338336617047E-15, -6.548994101049637215E-17, 0.5347659509345308315 ) ) ;
#79 = AXIS2_PLACEMENT_3D ( 'NONE', #78, #128, #155 ) ;
#80 = CLOSED_SHELL ( 'NONE', ( #73, #174, #153, #213, #67 ) ) ;
#81 = DATE_TIME_ROLE ( 'creation_date' ) ;
#82 = PERSON_AND_ORGANIZATION_ROLE ( 'creator' ) ;
#83 = VERTEX_POINT ( 'NONE', #32 ) ;
#84 = CALENDAR_DATE ( 2021, 8, 10 ) ;
#85 = PRODUCT_DEFINITION_FORMATION_WITH_SPECIFIED_SOURCE ( 'ANY', '', #28, .NOT_KNOWN. ) ;
#86 = ADVANCED_BREP_SHAPE_REPRESENTATION ( '57888', ( #122, #42, #125 ), #20 ) ;
#87 =( NAMED_UNIT ( * ) SI_UNIT ( $, .STERADIAN. ) SOLID_ANGLE_UNIT ( ) );
#88 = ADVANCED_FACE ( 'NONE', ( #134, #152 ), #43, .T. ) ;
#89 = ORIENTED_EDGE ( 'NONE', *, *, #112, .T. ) ;
#90 = CC_DESIGN_APPROVAL ( #187, ( #151 ) ) ;
#91 = CC_DESIGN_DATE_AND_TIME_ASSIGNMENT ( #7, #198, ( #151 ) ) ;
#92 = ORIENTED_EDGE ( 'NONE', *, *, #219, .F. ) ;
#93 = AXIS2_PLACEMENT_3D ( 'NONE', #186, #173, #15 ) ;
#94 = FACE_OUTER_BOUND ( 'NONE', #9, .T. ) ;
#95 = CARTESIAN_POINT ( 'NONE',  ( 1.867125338336617047E-15, -6.548994101049637215E-17, 0.5347659509345308315 ) ) ;
#96 = EDGE_LOOP ( 'NONE', ( #166 ) ) ;
#97 = LOCAL_TIME ( 7, 15, 59.00000000000000000, #33 ) ;
#98 = DIRECTION ( 'NONE',  ( 0.0000000000000000000, 1.000000000000000000, 0.0000000000000000000 ) ) ;
#99 = VERTEX_POINT ( 'NONE', #65 ) ;
#100 = CIRCLE ( 'NONE', #79, 0.8899999999999937961 ) ;
#101 = APPROVAL_STATUS ( 'not_yet_approved' ) ;
#102 = MECHANICAL_CONTEXT ( 'NONE', #45, 'mechanical' ) ;
#103 = DIRECTION ( 'NONE',  ( 1.000000000000000000, 0.0000000000000000000, 0.0000000000000000000 ) ) ;
#104 = CIRCLE ( 'NONE', #53, 0.8899999999999947953 ) ;
#105 = EDGE_LOOP ( 'NONE', ( #163 ) ) ;
#106 = PERSON_AND_ORGANIZATION ( #214, #57 ) ;
#107 = APPROVAL_PERSON_ORGANIZATION ( #106, #187, #37 ) ;
#108 = EDGE_CURVE ( 'NONE', #178, #178, #190, .T. ) ;
#109 = EDGE_LOOP ( 'NONE', ( #89 ) ) ;
#110 = DIRECTION ( 'NONE',  ( -4.275831445896958607E-31, -1.000000000000000000, -1.224646799147353207E-16 ) ) ;
#111 = APPROVAL_PERSON_ORGANIZATION ( #18, #148, #209 ) ;
#112 = EDGE_CURVE ( 'NONE', #99, #99, #160, .T. ) ;
#113 = CARTESIAN_POINT ( 'NONE',  ( 4.189777606611760026E-14, 6.673931032845205595E-33, 12.00000000000000000 ) ) ;
#114 = FACE_BOUND ( 'NONE', #96, .T. ) ;
#115 = DIRECTION ( 'NONE',  ( 4.275831445896958607E-31, 1.000000000000000000, 1.224646799147352961E-16 ) ) ;
#116 = AXIS2_PLACEMENT_3D ( 'NONE', #72, #172, #27 ) ;
#117 = LOCAL_TIME ( 7, 15, 59.00000000000000000, #66 ) ;
#118 = DIRECTION ( 'NONE',  ( 0.0000000000000000000, 1.000000000000000000, 0.0000000000000000000 ) ) ;
#119 = PERSON_AND_ORGANIZATION_ROLE ( 'creator' ) ;
#120 = CC_DESIGN_PERSON_AND_ORGANIZATION_ASSIGNMENT ( #177, #188, ( #85 ) ) ;
#121 = CONICAL_SURFACE ( 'NONE', #93, 0.9999999999999963363, 0.5235987755982963732 ) ;
#122 = MANIFOLD_SOLID_BREP ( 'Corps-Déplacer/Copier1[1]', #80 ) ;
#123 = DATE_AND_TIME ( #139, #97 ) ;
#124 = PERSON_AND_ORGANIZATION_ROLE ( 'classification_officer' ) ;
#125 = AXIS2_PLACEMENT_3D ( 'NONE', #191, #192, #103 ) ;
#126 = ORIENTED_EDGE ( 'NONE', *, *, #112, .F. ) ;
#127 = PRODUCT_RELATED_PRODUCT_CATEGORY ( 'detail', '', ( #28 ) ) ;
#128 = DIRECTION ( 'NONE',  ( -3.491481338843133355E-15, 1.224646799147353207E-16, -1.000000000000000000 ) ) ;
#129 = EDGE_CURVE ( 'NONE', #83, #83, #221, .T. ) ;
#130 = DIRECTION ( 'NONE',  ( 0.0000000000000000000, 1.000000000000000000, 0.0000000000000000000 ) ) ;
#131 = AXIS2_PLACEMENT_3D ( 'NONE', #170, #11, #98 ) ;
#132 = APPLICATION_CONTEXT ( 'configuration controlled 3d designs of mechanical parts and assemblies' ) ;
#133 = CARTESIAN_POINT ( 'NONE',  ( 0.0000000000000000000, 0.0000000000000000000, 0.0000000000000000000 ) ) ;
#134 = FACE_OUTER_BOUND ( 'NONE', #167, .T. ) ;
#135 = FACE_OUTER_BOUND ( 'NONE', #38, .T. ) ;
#136 = AXIS2_PLACEMENT_3D ( 'NONE', #133, #222, #149 ) ;
#137 = APPROVAL_DATE_TIME ( #161, #148 ) ;
#138 = CC_DESIGN_PERSON_AND_ORGANIZATION_ASSIGNMENT ( #182, #124, ( #151 ) ) ;
#139 = CALENDAR_DATE ( 2021, 8, 10 ) ;
#140 = AXIS2_PLACEMENT_3D ( 'NONE', #41, #26, #13 ) ;
#141 = APPLICATION_PROTOCOL_DEFINITION ( 'international standard', 'config_control_design', 1994, #132 ) ;
#142 = PERSON_AND_ORGANIZATION ( #214, #57 ) ;
#143 = CALENDAR_DATE ( 2021, 8, 10 ) ;
#144 = DESIGN_CONTEXT ( 'detailed design', #132, 'design' ) ;
#145 = AXIS2_PLACEMENT_3D ( 'NONE', #113, #150, #183 ) ;
#146 = SHAPE_DEFINITION_REPRESENTATION ( #176, #86 ) ;
#147 = ORIENTED_EDGE ( 'NONE', *, *, #181, .T. ) ;
#148 = APPROVAL ( #3, 'UNSPECIFIED' ) ;
#149 = DIRECTION ( 'NONE',  ( 4.275831445896958607E-31, 1.000000000000000000, 1.224646799147352961E-16 ) ) ;
#150 = DIRECTION ( 'NONE',  ( 3.491481338843133355E-15, -1.224646799147353207E-16, 1.000000000000000000 ) ) ;
#151 = SECURITY_CLASSIFICATION ( '', '', #29 ) ;
#152 = FACE_OUTER_BOUND ( 'NONE', #105, .T. ) ;
#153 = ADVANCED_FACE ( 'NONE', ( #135, #207 ), #48, .T. ) ;
#154 = EDGE_LOOP ( 'NONE', ( #70 ) ) ;
#155 = DIRECTION ( 'NONE',  ( 4.327932459297189087E-31, 1.000000000000000000, 1.218204688185968445E-16 ) ) ;
#156 = AXIS2_PLACEMENT_3D ( 'NONE', #24, #75, #110 ) ;
#157 = PRODUCT_DEFINITION ( 'UNKNOWN', '', #85, #144 ) ;
#158 = PERSON_AND_ORGANIZATION ( #214, #57 ) ;
#159 =( NAMED_UNIT ( * ) PLANE_ANGLE_UNIT ( ) SI_UNIT ( $, .RADIAN. ) );
#160 = CIRCLE ( 'NONE', #131, 0.9999999999999993339 ) ;
#161 = DATE_AND_TIME ( #84, #31 ) ;
#162 = APPROVAL_DATE_TIME ( #217, #187 ) ;
#163 = ORIENTED_EDGE ( 'NONE', *, *, #219, .T. ) ;
#164 = CC_DESIGN_APPROVAL ( #148, ( #85 ) ) ;
#165 = COORDINATED_UNIVERSAL_TIME_OFFSET ( 1, 0, .AHEAD. ) ;
#166 = ORIENTED_EDGE ( 'NONE', *, *, #108, .T. ) ;
#167 = EDGE_LOOP ( 'NONE', ( #8 ) ) ;
#168 = CARTESIAN_POINT ( 'NONE',  ( 1.326762908760390423E-13, -4.653657836759941941E-15, 38.00000000000000000 ) ) ;
#169 = DIRECTION ( 'NONE',  ( 0.0000000000000000000, 1.000000000000000000, 0.0000000000000000000 ) ) ;
#170 = CARTESIAN_POINT ( 'NONE',  ( 1.319779946082704535E-13, -4.629164900776995227E-15, 37.79999999999999716 ) ) ;
#171 = CONICAL_SURFACE ( 'NONE', #47, 0.8899999999999937961, 1.029744258676649649 ) ;
#172 = DIRECTION ( 'NONE',  ( -3.491481338843133355E-15, 1.224646799147353207E-16, -1.000000000000000000 ) ) ;
#173 = DIRECTION ( 'NONE',  ( 3.491481338843133355E-15, -1.224646799147353207E-16, 1.000000000000000000 ) ) ;
#174 = ADVANCED_FACE ( 'NONE', ( #76, #220 ), #121, .T. ) ;
#175 = APPROVAL_ROLE ( '' ) ;
#176 = PRODUCT_DEFINITION_SHAPE ( 'NONE', 'NONE',  #157 ) ;
#177 = PERSON_AND_ORGANIZATION ( #214, #57 ) ;
#178 = VERTEX_POINT ( 'NONE', #189 ) ;
#179 = UNCERTAINTY_MEASURE_WITH_UNIT (LENGTH_MEASURE( 1.000000000000000082E-05 ), #208, 'distance_accuracy_value', 'NONE');
#180 = CALENDAR_DATE ( 2021, 8, 10 ) ;
#181 = EDGE_CURVE ( 'NONE', #4, #4, #100, .T. ) ;
#182 = PERSON_AND_ORGANIZATION ( #214, #57 ) ;
#183 = DIRECTION ( 'NONE',  ( -4.275831445896958607E-31, -1.000000000000000000, -1.224646799147353207E-16 ) ) ;
#184 = DIRECTION ( 'NONE',  ( -3.491481338843133355E-15, 1.224646799147353207E-16, -1.000000000000000000 ) ) ;
#185 = DIRECTION ( 'NONE',  ( -3.491481338843133355E-15, 1.224646799147353207E-16, -1.000000000000000000 ) ) ;
#186 = CARTESIAN_POINT ( 'NONE',  ( 4.256299260409865753E-14, -1.492908814228772356E-15, 12.19052558883258008 ) ) ;
#187 = APPROVAL ( #196, 'UNSPECIFIED' ) ;
#188 = PERSON_AND_ORGANIZATION_ROLE ( 'design_supplier' ) ;
#189 = CARTESIAN_POINT ( 'NONE',  ( 1.326762908760390423E-13, 0.7999999999999949374, 38.00000000000000000 ) ) ;
#190 = CIRCLE ( 'NONE', #194, 0.7999999999999996003 ) ;
#191 = CARTESIAN_POINT ( 'NONE',  ( 0.0000000000000000000, 0.0000000000000000000, 0.0000000000000000000 ) ) ;
#192 = DIRECTION ( 'NONE',  ( 0.0000000000000000000, 0.0000000000000000000, 1.000000000000000000 ) ) ;
#193 = PERSON_AND_ORGANIZATION ( #214, #57 ) ;
#194 = AXIS2_PLACEMENT_3D ( 'NONE', #223, #185, #118 ) ;
#195 = ADVANCED_FACE ( 'NONE', ( #205 ), #2, .T. ) ;
#196 = APPROVAL_STATUS ( 'not_yet_approved' ) ;
#197 = EDGE_LOOP ( 'NONE', ( #36 ) ) ;
#198 = DATE_TIME_ROLE ( 'classification_date' ) ;
#199 = ORIENTED_EDGE ( 'NONE', *, *, #10, .F. ) ;
#200 = AXIS2_PLACEMENT_3D ( 'NONE', #25, #23, #46 ) ;
#201 = FACE_OUTER_BOUND ( 'NONE', #218, .T. ) ;
#202 = AXIS2_PLACEMENT_3D ( 'NONE', #44, #1, #115 ) ;
#203 = CARTESIAN_POINT ( 'NONE',  ( 4.189777606611760026E-14, -1.469576158976823947E-15, 12.00000000000000000 ) ) ;
#204 = CC_DESIGN_PERSON_AND_ORGANIZATION_ASSIGNMENT ( #142, #63, ( #28 ) ) ;
#205 = FACE_OUTER_BOUND ( 'NONE', #35, .T. ) ;
#206 = DIRECTION ( 'NONE',  ( -4.327932459297189087E-31, -1.000000000000000000, -1.218204688185968445E-16 ) ) ;
#207 = FACE_OUTER_BOUND ( 'NONE', #109, .T. ) ;
#208 =( LENGTH_UNIT ( ) NAMED_UNIT ( * ) SI_UNIT ( .MILLI., .METRE. ) );
#209 = APPROVAL_ROLE ( '' ) ;
#210 = CONICAL_SURFACE ( 'NONE', #55, 0.7999999999999996003, 0.7853981633974507215 ) ;
#211 = CARTESIAN_POINT ( 'NONE',  ( 1.867125338336617441E-15, 0.8899999999999936851, 0.5347659509345309425 ) ) ;
#212 = APPROVAL_DATE_TIME ( #123, #77 ) ;
#213 = ADVANCED_FACE ( 'NONE', ( #94, #114 ), #210, .T. ) ;
#214 = PERSON ( 'UNSPECIFIED', 'UNSPECIFIED', 'UNSPECIFIED', ('UNSPECIFIED'), ('UNSPECIFIED'), ('UNSPECIFIED') ) ;
#215 = CC_DESIGN_APPROVAL ( #77, ( #157 ) ) ;
#216 = CC_DESIGN_SECURITY_CLASSIFICATION ( #151, ( #85 ) ) ;
#217 = DATE_AND_TIME ( #143, #58 ) ;
#218 = EDGE_LOOP ( 'NONE', ( #147 ) ) ;
#219 = EDGE_CURVE ( 'NONE', #52, #52, #104, .T. ) ;
#220 = FACE_OUTER_BOUND ( 'NONE', #197, .T. ) ;
#221 = CIRCLE ( 'NONE', #116, 0.9999999999999963363 ) ;
#222 = DIRECTION ( 'NONE',  ( -3.491481338843133355E-15, 1.224646799147353207E-16, -1.000000000000000000 ) ) ;
#223 = CARTESIAN_POINT ( 'NONE',  ( 1.326762908760390423E-13, -4.653657836759941941E-15, 38.00000000000000000 ) ) ;
ENDSEC;
END-ISO-10303-21;
