ISO-10303-21;
HEADER;
FILE_DESCRIPTION (( 'STEP AP203' ),
    '1' );
FILE_NAME ('57881.step',
    '2021-10-07T13:48:21',
    ( '' ),
    ( '' ),
    'SwSTEP 2.0',
    'SolidWorks 2019',
    '' );
FILE_SCHEMA (( 'CONFIG_CONTROL_DESIGN' ));
ENDSEC;

DATA;
#1 = ADVANCED_FACE ( 'NONE', ( #126 ), #6, .T. ) ;
#2 = DATE_AND_TIME ( #3, #186 ) ;
#3 = CALENDAR_DATE ( 2021, 7, 10 ) ;
#4 = COORDINATED_UNIVERSAL_TIME_OFFSET ( 1, 0, .AHEAD. ) ;
#5 = DIRECTION ( 'NONE',  ( 0.0000000000000000000, 0.0000000000000000000, 1.000000000000000000 ) ) ;
#6 = CONICAL_SURFACE ( 'NONE', #36, 0.8899999999999936851, 1.029744258676649649 ) ;
#7 = PRODUCT_DEFINITION ( 'UNKNOWN', '', #95, #14 ) ;
#8 = EDGE_LOOP ( 'NONE', ( #183 ) ) ;
#9 = SECURITY_CLASSIFICATION ( '', '', #21 ) ;
#10 = ADVANCED_BREP_SHAPE_REPRESENTATION ( '57881', ( #17, #161, #73 ), #76 ) ;
#11 = ADVANCED_FACE ( 'NONE', ( #196 ), #110, .T. ) ;
#12 = VERTEX_POINT ( 'NONE', #50 ) ;
#13 = CARTESIAN_POINT ( 'NONE',  ( 0.0000000000000000000, 0.0000000000000000000, 0.0000000000000000000 ) ) ;
#14 = DESIGN_CONTEXT ( 'detailed design', #78, 'design' ) ;
#15 = FACE_BOUND ( 'NONE', #41, .T. ) ;
#16 = CARTESIAN_POINT ( 'NONE',  ( 1.867125338336616258E-15, -6.548994101049634750E-17, 0.5347659509345306095 ) ) ;
#17 = MANIFOLD_SOLID_BREP ( 'Corps-Déplacer/Copier1[1]', #91 ) ;
#18 = CIRCLE ( 'NONE', #180, 0.9999999999999993339 ) ;
#19 = DIRECTION ( 'NONE',  ( -3.491481338843133355E-15, 1.224646799147353207E-16, -1.000000000000000000 ) ) ;
#20 = PERSON_AND_ORGANIZATION ( #150, #109 ) ;
#21 = SECURITY_CLASSIFICATION_LEVEL ( 'unclassified' ) ;
#22 = APPROVAL_STATUS ( 'not_yet_approved' ) ;
#23 = CC_DESIGN_DATE_AND_TIME_ASSIGNMENT ( #2, #67, ( #9 ) ) ;
#24 = APPLICATION_PROTOCOL_DEFINITION ( 'international standard', 'config_control_design', 1994, #158 ) ;
#25 = ORIENTED_EDGE ( 'NONE', *, *, #156, .T. ) ;
#26 = EDGE_CURVE ( 'NONE', #65, #65, #64, .T. ) ;
#27 = EDGE_LOOP ( 'NONE', ( #163 ) ) ;
#28 = AXIS2_PLACEMENT_3D ( 'NONE', #131, #165, #80 ) ;
#29 = EDGE_LOOP ( 'NONE', ( #74 ) ) ;
#30 = DIRECTION ( 'NONE',  ( -3.491481338843133355E-15, 1.224646799147353207E-16, -1.000000000000000000 ) ) ;
#31 = CARTESIAN_POINT ( 'NONE',  ( 4.189777606611760026E-14, 6.673931032845211069E-33, 12.00000000000000000 ) ) ;
#32 = CC_DESIGN_PERSON_AND_ORGANIZATION_ASSIGNMENT ( #20, #52, ( #95 ) ) ;
#33 = CARTESIAN_POINT ( 'NONE',  ( 4.189777606611760026E-14, 0.8899999999999941291, 12.00000000000000000 ) ) ;
#34 = CARTESIAN_POINT ( 'NONE',  ( 1.326762908760390423E-13, 5.999039130647358587E-33, 38.00000000000000000 ) ) ;
#35 = CARTESIAN_POINT ( 'NONE',  ( 1.326762908760390423E-13, 0.7999999999999949374, 38.00000000000000000 ) ) ;
#36 = AXIS2_PLACEMENT_3D ( 'NONE', #43, #214, #124 ) ;
#37 = MECHANICAL_CONTEXT ( 'NONE', #158, 'mechanical' ) ;
#38 = AXIS2_PLACEMENT_3D ( 'NONE', #79, #170, #220 ) ;
#39 = CALENDAR_DATE ( 2021, 7, 10 ) ;
#40 =( NAMED_UNIT ( * ) SI_UNIT ( $, .STERADIAN. ) SOLID_ANGLE_UNIT ( ) );
#41 = EDGE_LOOP ( 'NONE', ( #182 ) ) ;
#42 = PRODUCT ( '57881', '57881', '', ( #37 ) ) ;
#43 = CARTESIAN_POINT ( 'NONE',  ( 1.867125338336616258E-15, -6.548994101049634750E-17, 0.5347659509345306095 ) ) ;
#44 = AXIS2_PLACEMENT_3D ( 'NONE', #31, #115, #219 ) ;
#45 = FACE_OUTER_BOUND ( 'NONE', #57, .T. ) ;
#46 = EDGE_CURVE ( 'NONE', #96, #96, #154, .T. ) ;
#47 = FACE_OUTER_BOUND ( 'NONE', #92, .T. ) ;
#48 = AXIS2_PLACEMENT_3D ( 'NONE', #93, #127, #113 ) ;
#49 = CARTESIAN_POINT ( 'NONE',  ( 4.189777606611760026E-14, -1.469576158976823947E-15, 12.00000000000000000 ) ) ;
#50 = CARTESIAN_POINT ( 'NONE',  ( 1.867125338336616653E-15, 0.8899999999999935740, 0.5347659509345307205 ) ) ;
#51 = DATE_TIME_ROLE ( 'creation_date' ) ;
#52 = PERSON_AND_ORGANIZATION_ROLE ( 'creator' ) ;
#53 =( NAMED_UNIT ( * ) PLANE_ANGLE_UNIT ( ) SI_UNIT ( $, .RADIAN. ) );
#54 = ADVANCED_FACE ( 'NONE', ( #15, #221 ), #192, .T. ) ;
#55 = CALENDAR_DATE ( 2021, 7, 10 ) ;
#56 = COORDINATED_UNIVERSAL_TIME_OFFSET ( 1, 0, .AHEAD. ) ;
#57 = EDGE_LOOP ( 'NONE', ( #213 ) ) ;
#58 = APPROVAL_PERSON_ORGANIZATION ( #208, #191, #172 ) ;
#59 = ORIENTED_EDGE ( 'NONE', *, *, #204, .F. ) ;
#60 = EDGE_LOOP ( 'NONE', ( #216 ) ) ;
#61 = CARTESIAN_POINT ( 'NONE',  ( 1.326762908760390423E-13, -4.653657836759941941E-15, 38.00000000000000000 ) ) ;
#62 = FACE_OUTER_BOUND ( 'NONE', #123, .T. ) ;
#63 = DIRECTION ( 'NONE',  ( 4.275831445896958607E-31, 1.000000000000000000, 1.224646799147353207E-16 ) ) ;
#64 = CIRCLE ( 'NONE', #160, 0.8899999999999955724 ) ;
#65 = VERTEX_POINT ( 'NONE', #33 ) ;
#66 = DIRECTION ( 'NONE',  ( 0.0000000000000000000, 1.000000000000000000, 0.0000000000000000000 ) ) ;
#67 = DATE_TIME_ROLE ( 'classification_date' ) ;
#68 = CC_DESIGN_PERSON_AND_ORGANIZATION_ASSIGNMENT ( #194, #133, ( #42 ) ) ;
#69 = PERSON_AND_ORGANIZATION_ROLE ( 'creator' ) ;
#70 =( LENGTH_UNIT ( ) NAMED_UNIT ( * ) SI_UNIT ( .MILLI., .METRE. ) );
#71 = DATE_AND_TIME ( #90, #86 ) ;
#72 = EDGE_LOOP ( 'NONE', ( #59 ) ) ;
#73 = AXIS2_PLACEMENT_3D ( 'NONE', #153, #5, #173 ) ;
#74 = ORIENTED_EDGE ( 'NONE', *, *, #81, .T. ) ;
#75 = VERTEX_POINT ( 'NONE', #144 ) ;
#76 =( GEOMETRIC_REPRESENTATION_CONTEXT ( 3 ) GLOBAL_UNCERTAINTY_ASSIGNED_CONTEXT ( ( #174 ) ) GLOBAL_UNIT_ASSIGNED_CONTEXT ( ( #70, #53, #40 ) ) REPRESENTATION_CONTEXT ( 'NONE', 'WORKASPACE' ) );
#77 = DIRECTION ( 'NONE',  ( -3.491481338843133355E-15, 1.224646799147353207E-16, -1.000000000000000000 ) ) ;
#78 = APPLICATION_CONTEXT ( 'configuration controlled 3d designs of mechanical parts and assemblies' ) ;
#79 = CARTESIAN_POINT ( 'NONE',  ( 4.256299260409867015E-14, -1.492908814228772751E-15, 12.19052558883258364 ) ) ;
#80 = DIRECTION ( 'NONE',  ( -4.275831445896958607E-31, -1.000000000000000000, -1.224646799147353207E-16 ) ) ;
#81 = EDGE_CURVE ( 'NONE', #130, #130, #190, .T. ) ;
#82 = DIRECTION ( 'NONE',  ( 4.275831445896958607E-31, 1.000000000000000000, 1.224646799147353207E-16 ) ) ;
#83 = DATE_AND_TIME ( #211, #179 ) ;
#84 = ADVANCED_FACE ( 'NONE', ( #47 ), #111, .F. ) ;
#85 = PERSON_AND_ORGANIZATION_ROLE ( 'classification_officer' ) ;
#86 = LOCAL_TIME ( 15, 48, 21.00000000000000000, #4 ) ;
#87 = CC_DESIGN_SECURITY_CLASSIFICATION ( #9, ( #95 ) ) ;
#88 = PERSON_AND_ORGANIZATION ( #150, #109 ) ;
#89 = CARTESIAN_POINT ( 'NONE',  ( 1.319779946082704535E-13, 0.9999999999999947820, 37.79999999999999716 ) ) ;
#90 = CALENDAR_DATE ( 2021, 7, 10 ) ;
#91 = CLOSED_SHELL ( 'NONE', ( #164, #54, #146, #152, #84 ) ) ;
#92 = EDGE_LOOP ( 'NONE', ( #125 ) ) ;
#93 = CARTESIAN_POINT ( 'NONE',  ( 0.0000000000000000000, 0.0000000000000000000, 0.0000000000000000000 ) ) ;
#94 = DIRECTION ( 'NONE',  ( -3.491481338843133355E-15, 1.224646799147353207E-16, -1.000000000000000000 ) ) ;
#95 = PRODUCT_DEFINITION_FORMATION_WITH_SPECIFIED_SOURCE ( 'ANY', '', #42, .NOT_KNOWN. ) ;
#96 = VERTEX_POINT ( 'NONE', #35 ) ;
#97 = CARTESIAN_POINT ( 'NONE',  ( 4.189777606611760026E-14, -1.469576158976823947E-15, 12.00000000000000000 ) ) ;
#98 = FACE_OUTER_BOUND ( 'NONE', #27, .T. ) ;
#99 = APPROVAL_STATUS ( 'not_yet_approved' ) ;
#100 = DATE_AND_TIME ( #39, #185 ) ;
#101 = APPROVAL_DATE_TIME ( #100, #191 ) ;
#102 = CC_DESIGN_APPROVAL ( #209, ( #9 ) ) ;
#103 = CC_DESIGN_APPROVAL ( #191, ( #95 ) ) ;
#104 = APPROVAL_STATUS ( 'not_yet_approved' ) ;
#105 = PERSON_AND_ORGANIZATION ( #150, #109 ) ;
#106 = AXIS2_PLACEMENT_3D ( 'NONE', #34, #184, #82 ) ;
#107 = EDGE_CURVE ( 'NONE', #12, #12, #207, .T. ) ;
#108 = EDGE_LOOP ( 'NONE', ( #217 ) ) ;
#109 = ORGANIZATION ( 'UNSPECIFIED', 'UNSPECIFIED', '' ) ;
#110 = PLANE ( 'NONE',  #44 ) ;
#111 = PLANE ( 'NONE',  #106 ) ;
#112 = ADVANCED_FACE ( 'NONE', ( #98, #206 ), #147, .T. ) ;
#113 = DIRECTION ( 'NONE',  ( 4.275831445896958607E-31, 1.000000000000000000, 1.224646799147353207E-16 ) ) ;
#114 = CARTESIAN_POINT ( 'NONE',  ( 4.256299260409867015E-14, -1.492908814228772751E-15, 12.19052558883258364 ) ) ;
#115 = DIRECTION ( 'NONE',  ( 3.491481338843133355E-15, -1.224646799147353207E-16, 1.000000000000000000 ) ) ;
#116 = FACE_OUTER_BOUND ( 'NONE', #72, .T. ) ;
#117 = VERTEX_POINT ( 'NONE', #89 ) ;
#118 = CC_DESIGN_PERSON_AND_ORGANIZATION_ASSIGNMENT ( #177, #69, ( #7 ) ) ;
#119 = AXIS2_PLACEMENT_3D ( 'NONE', #114, #167, #200 ) ;
#120 = COORDINATED_UNIVERSAL_TIME_OFFSET ( 1, 0, .AHEAD. ) ;
#121 = APPROVAL_ROLE ( '' ) ;
#122 = CONICAL_SURFACE ( 'NONE', #166, 0.7999999999999996003, 0.7853981633974507215 ) ;
#123 = EDGE_LOOP ( 'NONE', ( #25 ) ) ;
#124 = DIRECTION ( 'NONE',  ( -4.327932459297189962E-31, -1.000000000000000000, -1.218204688185968691E-16 ) ) ;
#125 = ORIENTED_EDGE ( 'NONE', *, *, #46, .F. ) ;
#126 = FACE_OUTER_BOUND ( 'NONE', #108, .T. ) ;
#127 = DIRECTION ( 'NONE',  ( -3.491481338843133355E-15, 1.224646799147353207E-16, -1.000000000000000000 ) ) ;
#128 = DIRECTION ( 'NONE',  ( 0.0000000000000000000, 1.000000000000000000, 0.0000000000000000000 ) ) ;
#129 = FACE_BOUND ( 'NONE', #142, .T. ) ;
#130 = VERTEX_POINT ( 'NONE', #205 ) ;
#131 = CARTESIAN_POINT ( 'NONE',  ( 4.189777606611760026E-14, 6.673931032845211069E-33, 12.00000000000000000 ) ) ;
#132 = AXIS2_PLACEMENT_3D ( 'NONE', #61, #94, #145 ) ;
#133 = PERSON_AND_ORGANIZATION_ROLE ( 'design_owner' ) ;
#134 = COORDINATED_UNIVERSAL_TIME_OFFSET ( 1, 0, .AHEAD. ) ;
#135 = APPROVAL_DATE_TIME ( #137, #181 ) ;
#136 = LOCAL_TIME ( 15, 48, 21.00000000000000000, #178 ) ;
#137 = DATE_AND_TIME ( #55, #136 ) ;
#138 = PRODUCT_RELATED_PRODUCT_CATEGORY ( 'detail', '', ( #42 ) ) ;
#139 = ORIENTED_EDGE ( 'NONE', *, *, #46, .T. ) ;
#140 = EDGE_LOOP ( 'NONE', ( #198 ) ) ;
#141 = CIRCLE ( 'NONE', #143, 0.8899999999999955724 ) ;
#142 = EDGE_LOOP ( 'NONE', ( #139 ) ) ;
#143 = AXIS2_PLACEMENT_3D ( 'NONE', #97, #77, #168 ) ;
#144 = CARTESIAN_POINT ( 'NONE',  ( 4.189777606611760026E-14, 0.8899999999999941291, 12.00000000000000000 ) ) ;
#145 = DIRECTION ( 'NONE',  ( 0.0000000000000000000, 1.000000000000000000, 0.0000000000000000000 ) ) ;
#146 = ADVANCED_FACE ( 'NONE', ( #151, #45 ), #223, .T. ) ;
#147 = CYLINDRICAL_SURFACE ( 'NONE', #171, 0.8899999999999946843 ) ;
#148 = CARTESIAN_POINT ( 'NONE',  ( 1.319779946082704535E-13, -4.629164900776995227E-15, 37.79999999999999716 ) ) ;
#149 = AXIS2_PLACEMENT_3D ( 'NONE', #16, #30, #187 ) ;
#150 = PERSON ( 'UNSPECIFIED', 'UNSPECIFIED', 'UNSPECIFIED', ('UNSPECIFIED'), ('UNSPECIFIED'), ('UNSPECIFIED') ) ;
#151 = FACE_OUTER_BOUND ( 'NONE', #60, .T. ) ;
#152 = ADVANCED_FACE ( 'NONE', ( #116, #129 ), #122, .T. ) ;
#153 = CARTESIAN_POINT ( 'NONE',  ( 0.0000000000000000000, 0.0000000000000000000, 0.0000000000000000000 ) ) ;
#154 = CIRCLE ( 'NONE', #132, 0.7999999999999996003 ) ;
#155 = PERSON_AND_ORGANIZATION ( #150, #109 ) ;
#156 = EDGE_CURVE ( 'NONE', #75, #75, #141, .T. ) ;
#157 = PERSON_AND_ORGANIZATION_ROLE ( 'design_supplier' ) ;
#158 = APPLICATION_CONTEXT ( 'configuration controlled 3d designs of mechanical parts and assemblies' ) ;
#159 = APPROVAL_ROLE ( '' ) ;
#160 = AXIS2_PLACEMENT_3D ( 'NONE', #49, #201, #222 ) ;
#161 = MANIFOLD_SOLID_BREP ( 'Corps-Déplacer/Copier1[2]', #218 ) ;
#162 = APPROVAL_DATE_TIME ( #71, #209 ) ;
#163 = ORIENTED_EDGE ( 'NONE', *, *, #107, .F. ) ;
#164 = ADVANCED_FACE ( 'NONE', ( #62 ), #169, .F. ) ;
#165 = DIRECTION ( 'NONE',  ( 3.491481338843133355E-15, -1.224646799147353207E-16, 1.000000000000000000 ) ) ;
#166 = AXIS2_PLACEMENT_3D ( 'NONE', #203, #188, #66 ) ;
#167 = DIRECTION ( 'NONE',  ( -3.491481338843133355E-15, 1.224646799147353207E-16, -1.000000000000000000 ) ) ;
#168 = DIRECTION ( 'NONE',  ( 0.0000000000000000000, 1.000000000000000000, 0.0000000000000000000 ) ) ;
#169 = PLANE ( 'NONE',  #28 ) ;
#170 = DIRECTION ( 'NONE',  ( 3.491481338843133355E-15, -1.224646799147353207E-16, 1.000000000000000000 ) ) ;
#171 = AXIS2_PLACEMENT_3D ( 'NONE', #13, #19, #63 ) ;
#172 = APPROVAL_ROLE ( '' ) ;
#173 = DIRECTION ( 'NONE',  ( 1.000000000000000000, 0.0000000000000000000, 0.0000000000000000000 ) ) ;
#174 = UNCERTAINTY_MEASURE_WITH_UNIT (LENGTH_MEASURE( 1.000000000000000082E-05 ), #70, 'distance_accuracy_value', 'NONE');
#175 = CC_DESIGN_PERSON_AND_ORGANIZATION_ASSIGNMENT ( #155, #85, ( #9 ) ) ;
#176 = APPLICATION_PROTOCOL_DEFINITION ( 'international standard', 'config_control_design', 1994, #78 ) ;
#177 = PERSON_AND_ORGANIZATION ( #150, #109 ) ;
#178 = COORDINATED_UNIVERSAL_TIME_OFFSET ( 1, 0, .AHEAD. ) ;
#179 = LOCAL_TIME ( 15, 48, 21.00000000000000000, #56 ) ;
#180 = AXIS2_PLACEMENT_3D ( 'NONE', #148, #189, #128 ) ;
#181 = APPROVAL ( #99, 'UNSPECIFIED' ) ;
#182 = ORIENTED_EDGE ( 'NONE', *, *, #156, .F. ) ;
#183 = ORIENTED_EDGE ( 'NONE', *, *, #26, .F. ) ;
#184 = DIRECTION ( 'NONE',  ( -3.491481338843133355E-15, 1.224646799147353207E-16, -1.000000000000000000 ) ) ;
#185 = LOCAL_TIME ( 15, 48, 21.00000000000000000, #120 ) ;
#186 = LOCAL_TIME ( 15, 48, 21.00000000000000000, #134 ) ;
#187 = DIRECTION ( 'NONE',  ( 4.327932459297189962E-31, 1.000000000000000000, 1.218204688185968691E-16 ) ) ;
#188 = DIRECTION ( 'NONE',  ( -3.491481338843133355E-15, 1.224646799147353207E-16, -1.000000000000000000 ) ) ;
#189 = DIRECTION ( 'NONE',  ( -3.491481338843133355E-15, 1.224646799147353207E-16, -1.000000000000000000 ) ) ;
#190 = CIRCLE ( 'NONE', #119, 0.9999999999999970024 ) ;
#191 = APPROVAL ( #22, 'UNSPECIFIED' ) ;
#192 = CONICAL_SURFACE ( 'NONE', #38, 0.9999999999999970024, 0.5235987755982877134 ) ;
#193 = APPROVAL_PERSON_ORGANIZATION ( #210, #209, #121 ) ;
#194 = PERSON_AND_ORGANIZATION ( #150, #109 ) ;
#195 = SHAPE_DEFINITION_REPRESENTATION ( #212, #10 ) ;
#196 = FACE_OUTER_BOUND ( 'NONE', #8, .T. ) ;
#197 = CC_DESIGN_DATE_AND_TIME_ASSIGNMENT ( #83, #51, ( #7 ) ) ;
#198 = ORIENTED_EDGE ( 'NONE', *, *, #26, .T. ) ;
#199 = CC_DESIGN_APPROVAL ( #181, ( #7 ) ) ;
#200 = DIRECTION ( 'NONE',  ( 0.0000000000000000000, 1.000000000000000000, 0.0000000000000000000 ) ) ;
#201 = DIRECTION ( 'NONE',  ( -3.491481338843133355E-15, 1.224646799147353207E-16, -1.000000000000000000 ) ) ;
#202 = APPROVAL_PERSON_ORGANIZATION ( #105, #181, #159 ) ;
#203 = CARTESIAN_POINT ( 'NONE',  ( 1.326762908760390423E-13, -4.653657836759941941E-15, 38.00000000000000000 ) ) ;
#204 = EDGE_CURVE ( 'NONE', #117, #117, #18, .T. ) ;
#205 = CARTESIAN_POINT ( 'NONE',  ( 4.256299260409867015E-14, 0.9999999999999954481, 12.19052558883258364 ) ) ;
#206 = FACE_OUTER_BOUND ( 'NONE', #140, .T. ) ;
#207 = CIRCLE ( 'NONE', #149, 0.8899999999999936851 ) ;
#208 = PERSON_AND_ORGANIZATION ( #150, #109 ) ;
#209 = APPROVAL ( #104, 'UNSPECIFIED' ) ;
#210 = PERSON_AND_ORGANIZATION ( #150, #109 ) ;
#211 = CALENDAR_DATE ( 2021, 7, 10 ) ;
#212 = PRODUCT_DEFINITION_SHAPE ( 'NONE', 'NONE',  #7 ) ;
#213 = ORIENTED_EDGE ( 'NONE', *, *, #204, .T. ) ;
#214 = DIRECTION ( 'NONE',  ( 3.491481338843133355E-15, -1.224646799147353207E-16, 1.000000000000000000 ) ) ;
#215 = CC_DESIGN_PERSON_AND_ORGANIZATION_ASSIGNMENT ( #88, #157, ( #95 ) ) ;
#216 = ORIENTED_EDGE ( 'NONE', *, *, #81, .F. ) ;
#217 = ORIENTED_EDGE ( 'NONE', *, *, #107, .T. ) ;
#218 = CLOSED_SHELL ( 'NONE', ( #1, #112, #11 ) ) ;
#219 = DIRECTION ( 'NONE',  ( -4.275831445896958607E-31, -1.000000000000000000, -1.224646799147353207E-16 ) ) ;
#220 = DIRECTION ( 'NONE',  ( 0.0000000000000000000, -1.000000000000000000, 0.0000000000000000000 ) ) ;
#221 = FACE_OUTER_BOUND ( 'NONE', #29, .T. ) ;
#222 = DIRECTION ( 'NONE',  ( 0.0000000000000000000, 1.000000000000000000, 0.0000000000000000000 ) ) ;
#223 = CYLINDRICAL_SURFACE ( 'NONE', #48, 0.9999999999999983347 ) ;
ENDSEC;
END-ISO-10303-21;
