ISO-10303-21;
HEADER;
FILE_DESCRIPTION (( 'STEP AP203' ),
    '1' );
FILE_NAME ('57873.step',
    '2021-11-01T10:35:26',
    ( '' ),
    ( '' ),
    'SwSTEP 2.0',
    'SolidWorks 2019',
    '' );
FILE_SCHEMA (( 'CONFIG_CONTROL_DESIGN' ));
ENDSEC;

DATA;
#1 = ORIENTED_EDGE ( 'NONE', *, *, #108, .T. ) ;
#2 = CC_DESIGN_PERSON_AND_ORGANIZATION_ASSIGNMENT ( #132, #222, ( #208 ) ) ;
#3 = DIRECTION ( 'NONE',  ( 0.0000000000000000000, 1.000000000000000000, 0.0000000000000000000 ) ) ;
#4 = EDGE_LOOP ( 'NONE', ( #189 ) ) ;
#5 = CC_DESIGN_PERSON_AND_ORGANIZATION_ASSIGNMENT ( #83, #66, ( #209 ) ) ;
#6 = FACE_OUTER_BOUND ( 'NONE', #204, .T. ) ;
#7 = FACE_OUTER_BOUND ( 'NONE', #43, .T. ) ;
#8 = CIRCLE ( 'NONE', #16, 1.099999999999999423 ) ;
#9 = DIRECTION ( 'NONE',  ( -4.275831445896958607E-31, -1.000000000000000000, -1.224646799147353207E-16 ) ) ;
#10 = CARTESIAN_POINT ( 'NONE',  ( 3.316208696091017252E-14, 1.499999999999994671, 9.497999199359345113 ) ) ;
#11 = CARTESIAN_POINT ( 'NONE',  ( 2.444036937190193033E-14, -1.100000000000000311, 6.999999999999999112 ) ) ;
#12 = CC_DESIGN_PERSON_AND_ORGANIZATION_ASSIGNMENT ( #170, #182, ( #99 ) ) ;
#13 = APPROVAL_DATE_TIME ( #14, #172 ) ;
#14 = DATE_AND_TIME ( #180, #213 ) ;
#15 = AXIS2_PLACEMENT_3D ( 'NONE', #163, #144, #104 ) ;
#16 = AXIS2_PLACEMENT_3D ( 'NONE', #72, #145, #46 ) ;
#17 = CARTESIAN_POINT ( 'NONE',  ( -9.428882227942434412E-31, -1.099999999999999423, -2.700539201812430653E-16 ) ) ;
#18 = PERSON_AND_ORGANIZATION ( #187, #85 ) ;
#19 = PRODUCT ( '57873', '57873', '', ( #68 ) ) ;
#20 = COORDINATED_UNIVERSAL_TIME_OFFSET ( 1, 0, .AHEAD. ) ;
#21 = LOCAL_TIME ( 11, 35, 26.00000000000000000, #20 ) ;
#22 = EDGE_CURVE ( 'NONE', #49, #49, #219, .T. ) ;
#23 = SHAPE_DEFINITION_REPRESENTATION ( #173, #62 ) ;
#24 = ORIENTED_EDGE ( 'NONE', *, *, #206, .T. ) ;
#25 = EDGE_LOOP ( 'NONE', ( #118 ) ) ;
#26 = DIRECTION ( 'NONE',  ( -3.491481338843133355E-15, 1.224646799147353207E-16, -1.000000000000000000 ) ) ;
#27 = APPROVAL ( #183, 'UNSPECIFIED' ) ;
#28 = DIRECTION ( 'NONE',  ( 3.491481338843133355E-15, -1.224646799147353207E-16, 1.000000000000000000 ) ) ;
#29 = AXIS2_PLACEMENT_3D ( 'NONE', #210, #192, #125 ) ;
#30 = PLANE ( 'NONE',  #15 ) ;
#31 = EDGE_CURVE ( 'NONE', #48, #48, #44, .T. ) ;
#32 = PLANE ( 'NONE',  #29 ) ;
#33 = CARTESIAN_POINT ( 'NONE',  ( 1.326762908760390423E-13, -4.653657836759941941E-15, 38.00000000000000000 ) ) ;
#34 = LOCAL_TIME ( 11, 35, 26.00000000000000000, #53 ) ;
#35 =( LENGTH_UNIT ( ) NAMED_UNIT ( * ) SI_UNIT ( .MILLI., .METRE. ) );
#36 = PERSON_AND_ORGANIZATION ( #187, #85 ) ;
#37 = AXIS2_PLACEMENT_3D ( 'NONE', #126, #146, #73 ) ;
#38 = COORDINATED_UNIVERSAL_TIME_OFFSET ( 1, 0, .AHEAD. ) ;
#39 = ADVANCED_FACE ( 'NONE', ( #138 ), #32, .F. ) ;
#40 = ORIENTED_EDGE ( 'NONE', *, *, #206, .F. ) ;
#41 =( GEOMETRIC_REPRESENTATION_CONTEXT ( 3 ) GLOBAL_UNCERTAINTY_ASSIGNED_CONTEXT ( ( #153 ) ) GLOBAL_UNIT_ASSIGNED_CONTEXT ( ( #35, #133, #217 ) ) REPRESENTATION_CONTEXT ( 'NONE', 'WORKASPACE' ) );
#42 = ORIENTED_EDGE ( 'NONE', *, *, #215, .F. ) ;
#43 = EDGE_LOOP ( 'NONE', ( #137 ) ) ;
#44 = CIRCLE ( 'NONE', #119, 1.499999999999994893 ) ;
#45 = AXIS2_PLACEMENT_3D ( 'NONE', #214, #124, #207 ) ;
#46 = DIRECTION ( 'NONE',  ( 0.0000000000000000000, -1.000000000000000000, 0.0000000000000000000 ) ) ;
#47 = ADVANCED_FACE ( 'NONE', ( #167 ), #30, .F. ) ;
#48 = VERTEX_POINT ( 'NONE', #10 ) ;
#49 = VERTEX_POINT ( 'NONE', #195 ) ;
#50 = FACE_OUTER_BOUND ( 'NONE', #101, .T. ) ;
#51 = APPLICATION_PROTOCOL_DEFINITION ( 'international standard', 'config_control_design', 1994, #94 ) ;
#52 = CC_DESIGN_APPROVAL ( #181, ( #99 ) ) ;
#53 = COORDINATED_UNIVERSAL_TIME_OFFSET ( 1, 0, .AHEAD. ) ;
#54 = PERSON_AND_ORGANIZATION_ROLE ( 'design_supplier' ) ;
#55 = EDGE_LOOP ( 'NONE', ( #160 ) ) ;
#56 = EDGE_LOOP ( 'NONE', ( #190 ) ) ;
#57 = ORIENTED_EDGE ( 'NONE', *, *, #22, .F. ) ;
#58 = CONICAL_SURFACE ( 'NONE', #131, 1.199999999999995959, 0.7853981633974468357 ) ;
#59 = DIRECTION ( 'NONE',  ( 3.491481338843133355E-15, -1.227517819005651059E-16, 1.000000000000000000 ) ) ;
#60 = FACE_BOUND ( 'NONE', #25, .T. ) ;
#61 = FACE_OUTER_BOUND ( 'NONE', #117, .T. ) ;
#62 = ADVANCED_BREP_SHAPE_REPRESENTATION ( '57873', ( #148, #218, #79 ), #41 ) ;
#63 = CARTESIAN_POINT ( 'NONE',  ( 1.316288464743861212E-13, -4.616918432785521081E-15, 37.69999999999999574 ) ) ;
#64 = DIRECTION ( 'NONE',  ( 3.491481338843133355E-15, -1.227517819005651059E-16, 1.000000000000000000 ) ) ;
#65 = DIRECTION ( 'NONE',  ( 0.0000000000000000000, 0.0000000000000000000, 1.000000000000000000 ) ) ;
#66 = PERSON_AND_ORGANIZATION_ROLE ( 'creator' ) ;
#67 = AXIS2_PLACEMENT_3D ( 'NONE', #63, #26, #89 ) ;
#68 = MECHANICAL_CONTEXT ( 'NONE', #134, 'mechanical' ) ;
#69 = PERSON_AND_ORGANIZATION_ROLE ( 'design_owner' ) ;
#70 = DATE_AND_TIME ( #223, #91 ) ;
#71 = CARTESIAN_POINT ( 'NONE',  ( 1.326762908760390423E-13, -4.653657836759941941E-15, 38.00000000000000000 ) ) ;
#72 = CARTESIAN_POINT ( 'NONE',  ( 2.444036937190193033E-14, -8.592624733039555931E-16, 6.999999999999999112 ) ) ;
#73 = DIRECTION ( 'NONE',  ( 4.275831445896958607E-31, 1.000000000000000000, 1.224646799147353207E-16 ) ) ;
#74 = AXIS2_PLACEMENT_3D ( 'NONE', #165, #64, #177 ) ;
#75 = ADVANCED_FACE ( 'NONE', ( #128, #60 ), #58, .T. ) ;
#76 = CARTESIAN_POINT ( 'NONE',  ( -6.413731847436034514E-31, 0.0000000000000000000, -1.836965810494968570E-16 ) ) ;
#77 = FACE_OUTER_BOUND ( 'NONE', #55, .T. ) ;
#78 = DIRECTION ( 'NONE',  ( -3.491481338843133355E-15, 1.224646799147353207E-16, -1.000000000000000000 ) ) ;
#79 = AXIS2_PLACEMENT_3D ( 'NONE', #151, #65, #201 ) ;
#80 = PERSON_AND_ORGANIZATION ( #187, #85 ) ;
#81 = EDGE_CURVE ( 'NONE', #127, #127, #156, .T. ) ;
#82 = DATE_AND_TIME ( #129, #34 ) ;
#83 = PERSON_AND_ORGANIZATION ( #187, #85 ) ;
#84 = DATE_AND_TIME ( #143, #21 ) ;
#85 = ORGANIZATION ( 'UNSPECIFIED', 'UNSPECIFIED', '' ) ;
#86 = DIRECTION ( 'NONE',  ( 0.0000000000000000000, 1.000000000000000000, 0.0000000000000000000 ) ) ;
#87 = APPROVAL_ROLE ( '' ) ;
#88 = APPROVAL_PERSON_ORGANIZATION ( #18, #172, #115 ) ;
#89 = DIRECTION ( 'NONE',  ( 0.0000000000000000000, 1.000000000000000000, 0.0000000000000000000 ) ) ;
#90 = DIRECTION ( 'NONE',  ( 3.491481338843133355E-15, -1.227517819005651059E-16, 1.000000000000000000 ) ) ;
#91 = LOCAL_TIME ( 11, 35, 26.00000000000000000, #38 ) ;
#92 = DIRECTION ( 'NONE',  ( 0.0000000000000000000, 1.000000000000000000, 0.0000000000000000000 ) ) ;
#93 = VERTEX_POINT ( 'NONE', #11 ) ;
#94 = APPLICATION_CONTEXT ( 'configuration controlled 3d designs of mechanical parts and assemblies' ) ;
#95 = DATE_AND_TIME ( #154, #220 ) ;
#96 = CC_DESIGN_SECURITY_CLASSIFICATION ( #99, ( #208 ) ) ;
#97 = VERTEX_POINT ( 'NONE', #199 ) ;
#98 = PERSON_AND_ORGANIZATION ( #187, #85 ) ;
#99 = SECURITY_CLASSIFICATION ( '', '', #114 ) ;
#100 = EDGE_LOOP ( 'NONE', ( #1 ) ) ;
#101 = EDGE_LOOP ( 'NONE', ( #186 ) ) ;
#102 = CLOSED_SHELL ( 'NONE', ( #147, #116, #39 ) ) ;
#103 = AXIS2_PLACEMENT_3D ( 'NONE', #105, #90, #178 ) ;
#104 = DIRECTION ( 'NONE',  ( 4.275831445896958607E-31, 1.000000000000000000, 1.224646799147353207E-16 ) ) ;
#105 = CARTESIAN_POINT ( 'NONE',  ( -4.714441113971217206E-31, -5.974282697127032654E-33, -1.350269600906215573E-16 ) ) ;
#106 = PLANE ( 'NONE',  #123 ) ;
#107 = CARTESIAN_POINT ( 'NONE',  ( 2.444036937190193033E-14, -1.100000000000000311, 6.999999999999999112 ) ) ;
#108 = EDGE_CURVE ( 'NONE', #93, #93, #8, .T. ) ;
#109 = DIRECTION ( 'NONE',  ( -4.275831445896958607E-31, -1.000000000000000000, -1.224646799147353207E-16 ) ) ;
#110 = COORDINATED_UNIVERSAL_TIME_OFFSET ( 1, 0, .AHEAD. ) ;
#111 = CC_DESIGN_APPROVAL ( #27, ( #208 ) ) ;
#112 = VERTEX_POINT ( 'NONE', #17 ) ;
#113 = DESIGN_CONTEXT ( 'detailed design', #94, 'design' ) ;
#114 = SECURITY_CLASSIFICATION_LEVEL ( 'unclassified' ) ;
#115 = APPROVAL_ROLE ( '' ) ;
#116 = ADVANCED_FACE ( 'NONE', ( #211, #77 ), #162, .T. ) ;
#117 = EDGE_LOOP ( 'NONE', ( #24 ) ) ;
#118 = ORIENTED_EDGE ( 'NONE', *, *, #22, .T. ) ;
#119 = AXIS2_PLACEMENT_3D ( 'NONE', #158, #121, #3 ) ;
#120 = ADVANCED_FACE ( 'NONE', ( #61, #7 ), #196, .T. ) ;
#121 = DIRECTION ( 'NONE',  ( -3.491481338843133355E-15, 1.227517819005651059E-16, -1.000000000000000000 ) ) ;
#122 = EDGE_LOOP ( 'NONE', ( #57 ) ) ;
#123 = AXIS2_PLACEMENT_3D ( 'NONE', #193, #175, #9 ) ;
#124 = DIRECTION ( 'NONE',  ( 3.491481338843133355E-15, -1.227517819005651059E-16, 1.000000000000000000 ) ) ;
#125 = DIRECTION ( 'NONE',  ( -4.275831445896958607E-31, -1.000000000000000000, -1.224646799147353207E-16 ) ) ;
#126 = CARTESIAN_POINT ( 'NONE',  ( 0.0000000000000000000, 0.0000000000000000000, 0.0000000000000000000 ) ) ;
#127 = VERTEX_POINT ( 'NONE', #107 ) ;
#128 = FACE_OUTER_BOUND ( 'NONE', #205, .T. ) ;
#129 = CALENDAR_DATE ( 2021, 1, 11 ) ;
#130 = ADVANCED_FACE ( 'NONE', ( #50 ), #212, .F. ) ;
#131 = AXIS2_PLACEMENT_3D ( 'NONE', #33, #78, #92 ) ;
#132 = PERSON_AND_ORGANIZATION ( #187, #85 ) ;
#133 =( NAMED_UNIT ( * ) PLANE_ANGLE_UNIT ( ) SI_UNIT ( $, .RADIAN. ) );
#134 = APPLICATION_CONTEXT ( 'configuration controlled 3d designs of mechanical parts and assemblies' ) ;
#135 = AXIS2_PLACEMENT_3D ( 'NONE', #71, #142, #86 ) ;
#136 = CIRCLE ( 'NONE', #103, 1.099999999999999423 ) ;
#137 = ORIENTED_EDGE ( 'NONE', *, *, #31, .F. ) ;
#138 = FACE_OUTER_BOUND ( 'NONE', #203, .T. ) ;
#139 = ORIENTED_EDGE ( 'NONE', *, *, #81, .T. ) ;
#140 = CC_DESIGN_PERSON_AND_ORGANIZATION_ASSIGNMENT ( #36, #54, ( #208 ) ) ;
#141 = AXIS2_PLACEMENT_3D ( 'NONE', #149, #28, #109 ) ;
#142 = DIRECTION ( 'NONE',  ( -3.491481338843133355E-15, 1.224646799147353207E-16, -1.000000000000000000 ) ) ;
#143 = CALENDAR_DATE ( 2021, 1, 11 ) ;
#144 = DIRECTION ( 'NONE',  ( -3.491481338843133355E-15, 1.224646799147353207E-16, -1.000000000000000000 ) ) ;
#145 = DIRECTION ( 'NONE',  ( 3.491481338843133355E-15, -1.227517819005651059E-16, 1.000000000000000000 ) ) ;
#146 = DIRECTION ( 'NONE',  ( -3.491481338843133355E-15, 1.224646799147353207E-16, -1.000000000000000000 ) ) ;
#147 = ADVANCED_FACE ( 'NONE', ( #6 ), #106, .T. ) ;
#148 = MANIFOLD_SOLID_BREP ( 'Corps-Déplacer/Copier1[1]', #184 ) ;
#149 = CARTESIAN_POINT ( 'NONE',  ( 2.444036937190193349E-14, 1.124819836996386774E-32, 7.000000000000000000 ) ) ;
#150 = PERSON_AND_ORGANIZATION ( #187, #85 ) ;
#151 = CARTESIAN_POINT ( 'NONE',  ( 0.0000000000000000000, 0.0000000000000000000, 0.0000000000000000000 ) ) ;
#152 = APPROVAL_ROLE ( '' ) ;
#153 = UNCERTAINTY_MEASURE_WITH_UNIT (LENGTH_MEASURE( 1.000000000000000082E-05 ), #35, 'distance_accuracy_value', 'NONE');
#154 = CALENDAR_DATE ( 2021, 1, 11 ) ;
#155 = CC_DESIGN_DATE_AND_TIME_ASSIGNMENT ( #82, #198, ( #209 ) ) ;
#156 = CIRCLE ( 'NONE', #45, 1.099999999999999423 ) ;
#157 = APPROVAL_PERSON_ORGANIZATION ( #150, #27, #152 ) ;
#158 = CARTESIAN_POINT ( 'NONE',  ( 3.316208696091017252E-14, -3.066338529075446355E-16, 9.497999199359345113 ) ) ;
#159 = PRODUCT_RELATED_PRODUCT_CATEGORY ( 'detail', '', ( #19 ) ) ;
#160 = ORIENTED_EDGE ( 'NONE', *, *, #81, .F. ) ;
#161 = CIRCLE ( 'NONE', #67, 1.499999999999996669 ) ;
#162 = CYLINDRICAL_SURFACE ( 'NONE', #164, 1.099999999999999423 ) ;
#163 = CARTESIAN_POINT ( 'NONE',  ( 1.326762908760390423E-13, 8.998558695971047118E-33, 38.00000000000000000 ) ) ;
#164 = AXIS2_PLACEMENT_3D ( 'NONE', #76, #59, #176 ) ;
#165 = CARTESIAN_POINT ( 'NONE',  ( 2.444036937190193033E-14, 0.0000000000000000000, 6.999999999999999112 ) ) ;
#166 = FACE_OUTER_BOUND ( 'NONE', #4, .T. ) ;
#167 = FACE_OUTER_BOUND ( 'NONE', #122, .T. ) ;
#168 = DATE_TIME_ROLE ( 'classification_date' ) ;
#169 = COORDINATED_UNIVERSAL_TIME_OFFSET ( 1, 0, .AHEAD. ) ;
#170 = PERSON_AND_ORGANIZATION ( #187, #85 ) ;
#171 = APPROVAL_STATUS ( 'not_yet_approved' ) ;
#172 = APPROVAL ( #171, 'UNSPECIFIED' ) ;
#173 = PRODUCT_DEFINITION_SHAPE ( 'NONE', 'NONE',  #209 ) ;
#174 = CC_DESIGN_DATE_AND_TIME_ASSIGNMENT ( #70, #168, ( #99 ) ) ;
#175 = DIRECTION ( 'NONE',  ( 3.491481338843133355E-15, -1.224646799147353207E-16, 1.000000000000000000 ) ) ;
#176 = DIRECTION ( 'NONE',  ( -4.285855558155653280E-31, -1.000000000000000000, -1.227517819005650812E-16 ) ) ;
#177 = DIRECTION ( 'NONE',  ( -4.347973205882576304E-31, -1.000000000000000000, -1.227517819005651059E-16 ) ) ;
#178 = DIRECTION ( 'NONE',  ( -4.285855558155654155E-31, -1.000000000000000000, -1.227517819005650812E-16 ) ) ;
#179 = APPLICATION_PROTOCOL_DEFINITION ( 'international standard', 'config_control_design', 1994, #134 ) ;
#180 = CALENDAR_DATE ( 2021, 1, 11 ) ;
#181 = APPROVAL ( #216, 'UNSPECIFIED' ) ;
#182 = PERSON_AND_ORGANIZATION_ROLE ( 'classification_officer' ) ;
#183 = APPROVAL_STATUS ( 'not_yet_approved' ) ;
#184 = CLOSED_SHELL ( 'NONE', ( #120, #75, #47, #194, #130 ) ) ;
#185 = CC_DESIGN_APPROVAL ( #172, ( #209 ) ) ;
#186 = ORIENTED_EDGE ( 'NONE', *, *, #108, .F. ) ;
#187 = PERSON ( 'UNSPECIFIED', 'UNSPECIFIED', 'UNSPECIFIED', ('UNSPECIFIED'), ('UNSPECIFIED'), ('UNSPECIFIED') ) ;
#188 = APPROVAL_DATE_TIME ( #84, #181 ) ;
#189 = ORIENTED_EDGE ( 'NONE', *, *, #31, .T. ) ;
#190 = ORIENTED_EDGE ( 'NONE', *, *, #215, .T. ) ;
#191 = APPROVAL_PERSON_ORGANIZATION ( #80, #181, #87 ) ;
#192 = DIRECTION ( 'NONE',  ( 3.491481338843133355E-15, -1.224646799147353207E-16, 1.000000000000000000 ) ) ;
#193 = CARTESIAN_POINT ( 'NONE',  ( 2.444036937190193349E-14, 1.124819836996386774E-32, 7.000000000000000000 ) ) ;
#194 = ADVANCED_FACE ( 'NONE', ( #197, #166 ), #202, .F. ) ;
#195 = CARTESIAN_POINT ( 'NONE',  ( 1.326762908760390423E-13, 1.199999999999991518, 38.00000000000000000 ) ) ;
#196 = CYLINDRICAL_SURFACE ( 'NONE', #37, 1.499999999999994893 ) ;
#197 = FACE_OUTER_BOUND ( 'NONE', #100, .T. ) ;
#198 = DATE_TIME_ROLE ( 'creation_date' ) ;
#199 = CARTESIAN_POINT ( 'NONE',  ( 1.316288464743861212E-13, 1.499999999999992228, 37.69999999999999574 ) ) ;
#200 = CC_DESIGN_PERSON_AND_ORGANIZATION_ASSIGNMENT ( #98, #69, ( #19 ) ) ;
#201 = DIRECTION ( 'NONE',  ( 1.000000000000000000, 0.0000000000000000000, 0.0000000000000000000 ) ) ;
#202 = TOROIDAL_SURFACE ( 'NONE', #74, 9.099999999999997868, 8.000000000000000000 ) ;
#203 = EDGE_LOOP ( 'NONE', ( #42 ) ) ;
#204 = EDGE_LOOP ( 'NONE', ( #139 ) ) ;
#205 = EDGE_LOOP ( 'NONE', ( #40 ) ) ;
#206 = EDGE_CURVE ( 'NONE', #97, #97, #161, .T. ) ;
#207 = DIRECTION ( 'NONE',  ( 0.0000000000000000000, -1.000000000000000000, 0.0000000000000000000 ) ) ;
#208 = PRODUCT_DEFINITION_FORMATION_WITH_SPECIFIED_SOURCE ( 'ANY', '', #19, .NOT_KNOWN. ) ;
#209 = PRODUCT_DEFINITION ( 'UNKNOWN', '', #208, #113 ) ;
#210 = CARTESIAN_POINT ( 'NONE',  ( -8.551680453529350800E-31, 2.999525725151307090E-32, -2.449298628175645296E-16 ) ) ;
#211 = FACE_OUTER_BOUND ( 'NONE', #56, .T. ) ;
#212 = PLANE ( 'NONE',  #141 ) ;
#213 = LOCAL_TIME ( 11, 35, 26.00000000000000000, #169 ) ;
#214 = CARTESIAN_POINT ( 'NONE',  ( 2.444036937190193033E-14, -8.592624733039555931E-16, 6.999999999999999112 ) ) ;
#215 = EDGE_CURVE ( 'NONE', #112, #112, #136, .T. ) ;
#216 = APPROVAL_STATUS ( 'not_yet_approved' ) ;
#217 =( NAMED_UNIT ( * ) SI_UNIT ( $, .STERADIAN. ) SOLID_ANGLE_UNIT ( ) );
#218 = MANIFOLD_SOLID_BREP ( 'Corps-Déplacer/Copier1[2]', #102 ) ;
#219 = CIRCLE ( 'NONE', #135, 1.199999999999995959 ) ;
#220 = LOCAL_TIME ( 11, 35, 26.00000000000000000, #110 ) ;
#221 = APPROVAL_DATE_TIME ( #95, #27 ) ;
#222 = PERSON_AND_ORGANIZATION_ROLE ( 'creator' ) ;
#223 = CALENDAR_DATE ( 2021, 1, 11 ) ;
ENDSEC;
END-ISO-10303-21;
