ISO-10303-21;
HEADER;
FILE_DESCRIPTION (( 'STEP AP203' ),
    '1' );
FILE_NAME ('57853.step',
    '2021-09-03T07:22:47',
    ( '' ),
    ( '' ),
    'SwSTEP 2.0',
    'SolidWorks 2019',
    '' );
FILE_SCHEMA (( 'CONFIG_CONTROL_DESIGN' ));
ENDSEC;

DATA;
#1 = DIRECTION ( 'NONE',  ( -3.491481338843133355E-15, 1.224646799147353207E-16, -1.000000000000000000 ) ) ;
#2 = EDGE_CURVE ( 'NONE', #75, #58, #299, .T. ) ;
#3 = ORIENTED_EDGE ( 'NONE', *, *, #126, .T. ) ;
#4 = AXIS2_PLACEMENT_3D ( 'NONE', #91, #1, #146 ) ;
#5 = PERSON_AND_ORGANIZATION_ROLE ( 'design_supplier' ) ;
#6 = ORIENTED_EDGE ( 'NONE', *, *, #82, .T. ) ;
#7 = APPROVAL_STATUS ( 'not_yet_approved' ) ;
#8 = APPROVAL_STATUS ( 'not_yet_approved' ) ;
#9 = AXIS2_PLACEMENT_3D ( 'NONE', #40, #142, #221 ) ;
#10 = EDGE_LOOP ( 'NONE', ( #319, #205, #89, #282 ) ) ;
#11 = DIRECTION ( 'NONE',  ( -3.144375419407737850E-31, -1.000000000000000000, -8.850629979473522035E-17 ) ) ;
#12 = ADVANCED_FACE ( 'NONE', ( #14 ), #88, .T. ) ;
#13 = CC_DESIGN_APPROVAL ( #106, ( #21 ) ) ;
#14 = FACE_OUTER_BOUND ( 'NONE', #153, .T. ) ;
#15 = DIRECTION ( 'NONE',  ( -3.491481338843133355E-15, 1.224646799147353207E-16, -1.000000000000000000 ) ) ;
#16 = CARTESIAN_POINT ( 'NONE',  ( 1.082359215041371340E-13, 4.899999999999990585, 31.00000000000000000 ) ) ;
#17 = DIRECTION ( 'NONE',  ( -3.491481338843133355E-15, 1.224646799147353207E-16, -1.000000000000000000 ) ) ;
#18 = AXIS2_PLACEMENT_3D ( 'NONE', #206, #67, #76 ) ;
#19 = CARTESIAN_POINT ( 'NONE',  ( 1.082359215041371340E-13, 4.899999999999990585, 31.00000000000000000 ) ) ;
#20 = DIRECTION ( 'NONE',  ( 0.0000000000000000000, 1.000000000000000000, 0.0000000000000000000 ) ) ;
#21 = PRODUCT_DEFINITION ( 'UNKNOWN', '', #288, #286 ) ;
#22 = DIRECTION ( 'NONE',  ( 0.0000000000000000000, 1.000000000000000000, 0.0000000000000000000 ) ) ;
#23 = VECTOR ( 'NONE', #145, 999.9999999999998863 ) ;
#24 = CARTESIAN_POINT ( 'NONE',  ( 3.072503578181957353E-13, 4.899999999999990585, 88.00000000000000000 ) ) ;
#25 = ORIENTED_EDGE ( 'NONE', *, *, #194, .F. ) ;
#26 = ADVANCED_FACE ( 'NONE', ( #191 ), #245, .F. ) ;
#27 = DIRECTION ( 'NONE',  ( 4.275831445896958607E-31, 1.000000000000000000, 1.224646799147353454E-16 ) ) ;
#28 = ORIENTED_EDGE ( 'NONE', *, *, #190, .T. ) ;
#29 =( NAMED_UNIT ( * ) SI_UNIT ( $, .STERADIAN. ) SOLID_ANGLE_UNIT ( ) );
#30 = EDGE_LOOP ( 'NONE', ( #208, #36, #3, #83 ) ) ;
#31 = VECTOR ( 'NONE', #109, 1000.000000000000000 ) ;
#32 = PERSON_AND_ORGANIZATION ( #132, #69 ) ;
#33 = PERSON_AND_ORGANIZATION_ROLE ( 'classification_officer' ) ;
#34 = CIRCLE ( 'NONE', #266, 4.899999999999994138 ) ;
#35 = APPROVAL_STATUS ( 'not_yet_approved' ) ;
#36 = ORIENTED_EDGE ( 'NONE', *, *, #234, .T. ) ;
#37 = ADVANCED_FACE ( 'NONE', ( #327 ), #135, .T. ) ;
#38 = DIRECTION ( 'NONE',  ( -3.491481338843133355E-15, 1.224646799147353207E-16, -1.000000000000000000 ) ) ;
#39 = CARTESIAN_POINT ( 'NONE',  ( 6.000769315822007074E-16, -4.899999999999996803, -6.000769315822047503E-16 ) ) ;
#40 = CARTESIAN_POINT ( 'NONE',  ( 3.072503578181957353E-13, -1.077689183249670724E-14, 88.00000000000000000 ) ) ;
#41 = DIRECTION ( 'NONE',  ( 3.491481338843133355E-15, -1.224646799147353207E-16, 1.000000000000000000 ) ) ;
#42 = DIRECTION ( 'NONE',  ( 0.0000000000000000000, 1.000000000000000000, 0.0000000000000000000 ) ) ;
#43 = CIRCLE ( 'NONE', #332, 4.900000000000000355 ) ;
#44 = EDGE_CURVE ( 'NONE', #321, #58, #114, .T. ) ;
#45 = CARTESIAN_POINT ( 'NONE',  ( 1.027967882904434791E-14, -3.605625965746447222E-16, 2.944217033235072112 ) ) ;
#46 = PLANE ( 'NONE',  #61 ) ;
#47 = VECTOR ( 'NONE', #119, 999.9999999999998863 ) ;
#48 = ORIENTED_EDGE ( 'NONE', *, *, #152, .F. ) ;
#49 = DIRECTION ( 'NONE',  ( -3.491481338843133355E-15, 1.224646799147353207E-16, -1.000000000000000000 ) ) ;
#50 = ORIENTED_EDGE ( 'NONE', *, *, #90, .T. ) ;
#51 = DATE_AND_TIME ( #103, #304 ) ;
#52 = ORIENTED_EDGE ( 'NONE', *, *, #194, .T. ) ;
#53 = APPLICATION_PROTOCOL_DEFINITION ( 'international standard', 'config_control_design', 1994, #273 ) ;
#54 = DATE_AND_TIME ( #263, #181 ) ;
#55 = DATE_TIME_ROLE ( 'creation_date' ) ;
#56 = EDGE_LOOP ( 'NONE', ( #280, #52, #267 ) ) ;
#57 = VECTOR ( 'NONE', #15, 1000.000000000000000 ) ;
#58 = VERTEX_POINT ( 'NONE', #162 ) ;
#59 = CARTESIAN_POINT ( 'NONE',  ( 1.027967882904434633E-14, -4.899999999999990585, 2.944217033235071668 ) ) ;
#60 = DIRECTION ( 'NONE',  ( 4.275831445896958607E-31, 1.000000000000000000, 1.224646799147353207E-16 ) ) ;
#61 = AXIS2_PLACEMENT_3D ( 'NONE', #120, #227, #94 ) ;
#62 = CIRCLE ( 'NONE', #311, 4.899999999999994138 ) ;
#63 = LINE ( 'NONE', #166, #121 ) ;
#64 = FACE_OUTER_BOUND ( 'NONE', #30, .T. ) ;
#65 = CARTESIAN_POINT ( 'NONE',  ( 1.082359215041371340E-13, -3.796405077356795115E-15, 31.00000000000000000 ) ) ;
#66 = ADVANCED_FACE ( 'NONE', ( #196 ), #149, .T. ) ;
#67 = DIRECTION ( 'NONE',  ( -3.491481338843133355E-15, 1.224646799147353207E-16, -1.000000000000000000 ) ) ;
#68 = AXIS2_PLACEMENT_3D ( 'NONE', #143, #111, #219 ) ;
#69 = ORGANIZATION ( 'UNSPECIFIED', 'UNSPECIFIED', '' ) ;
#70 = DIRECTION ( 'NONE',  ( -3.491481338843133355E-15, 1.224646799147353207E-16, -1.000000000000000000 ) ) ;
#71 = CARTESIAN_POINT ( 'NONE',  ( 0.0000000000000000000, 0.0000000000000000000, 0.0000000000000000000 ) ) ;
#72 = EDGE_LOOP ( 'NONE', ( #173, #28, #174, #48 ) ) ;
#73 = DIRECTION ( 'NONE',  ( 3.144375419407737850E-31, 1.000000000000000000, 8.850629979473522035E-17 ) ) ;
#74 = CIRCLE ( 'NONE', #294, 4.899999999999990585 ) ;
#75 = VERTEX_POINT ( 'NONE', #244 ) ;
#76 = DIRECTION ( 'NONE',  ( 0.0000000000000000000, 1.000000000000000000, 0.0000000000000000000 ) ) ;
#77 = CC_DESIGN_PERSON_AND_ORGANIZATION_ASSIGNMENT ( #100, #33, ( #105 ) ) ;
#78 = CALENDAR_DATE ( 2021, 3, 9 ) ;
#79 = AXIS2_PLACEMENT_3D ( 'NONE', #241, #329, #192 ) ;
#80 = DATE_AND_TIME ( #285, #139 ) ;
#81 = PERSON_AND_ORGANIZATION ( #132, #69 ) ;
#82 = EDGE_CURVE ( 'NONE', #308, #95, #216, .T. ) ;
#83 = ORIENTED_EDGE ( 'NONE', *, *, #242, .F. ) ;
#84 = CARTESIAN_POINT ( 'NONE',  ( 2.083432165927485952E-13, -4.899999999999996803, 31.00000000000000000 ) ) ;
#85 = CARTESIAN_POINT ( 'NONE',  ( 1.027967882904434791E-14, -3.605625965746447222E-16, 2.944217033235072112 ) ) ;
#86 = CARTESIAN_POINT ( 'NONE',  ( 1.082359215041371340E-13, -3.796405077356795115E-15, 31.00000000000000000 ) ) ;
#87 = AXIS2_PLACEMENT_3D ( 'NONE', #65, #326, #169 ) ;
#88 = PLANE ( 'NONE',  #217 ) ;
#89 = ORIENTED_EDGE ( 'NONE', *, *, #131, .T. ) ;
#90 = EDGE_CURVE ( 'NONE', #97, #95, #34, .T. ) ;
#91 = CARTESIAN_POINT ( 'NONE',  ( 0.0000000000000000000, 0.0000000000000000000, 0.0000000000000000000 ) ) ;
#92 = CARTESIAN_POINT ( 'NONE',  ( 2.083432165927484942E-13, -4.900000000000011013, 88.00000000000000000 ) ) ;
#93 = LOCAL_TIME ( 9, 22, 47.00000000000000000, #258 ) ;
#94 = DIRECTION ( 'NONE',  ( 4.275831445896958607E-31, 1.000000000000000000, 1.224646799147353207E-16 ) ) ;
#95 = VERTEX_POINT ( 'NONE', #84 ) ;
#96 =( NAMED_UNIT ( * ) PLANE_ANGLE_UNIT ( ) SI_UNIT ( $, .RADIAN. ) );
#97 = VERTEX_POINT ( 'NONE', #16 ) ;
#98 = DIRECTION ( 'NONE',  ( -3.144375419407737850E-31, -1.000000000000000000, -8.850629979473522035E-17 ) ) ;
#99 = AXIS2_PLACEMENT_3D ( 'NONE', #151, #49, #20 ) ;
#100 = PERSON_AND_ORGANIZATION ( #132, #69 ) ;
#101 = ORIENTED_EDGE ( 'NONE', *, *, #234, .F. ) ;
#102 = EDGE_CURVE ( 'NONE', #229, #58, #226, .T. ) ;
#103 = CALENDAR_DATE ( 2021, 3, 9 ) ;
#104 = COORDINATED_UNIVERSAL_TIME_OFFSET ( 1, 0, .AHEAD. ) ;
#105 = SECURITY_CLASSIFICATION ( '', '', #134 ) ;
#106 = APPROVAL ( #7, 'UNSPECIFIED' ) ;
#107 = DIRECTION ( 'NONE',  ( 1.000000000000000000, 0.0000000000000000000, 0.0000000000000000000 ) ) ;
#108 = ORIENTED_EDGE ( 'NONE', *, *, #190, .F. ) ;
#109 = DIRECTION ( 'NONE',  ( -3.491481338843133355E-15, 1.224646799147353207E-16, -1.000000000000000000 ) ) ;
#110 = APPROVAL_PERSON_ORGANIZATION ( #262, #106, #214 ) ;
#111 = DIRECTION ( 'NONE',  ( 3.491481338843133355E-15, -1.224646799147353207E-16, 1.000000000000000000 ) ) ;
#112 = EDGE_CURVE ( 'NONE', #95, #97, #188, .T. ) ;
#113 = CARTESIAN_POINT ( 'NONE',  ( 2.095157408489508298E-30, 4.899999999999996803, 6.000769315822027782E-16 ) ) ;
#114 = LINE ( 'NONE', #59, #160 ) ;
#115 = AXIS2_PLACEMENT_3D ( 'NONE', #334, #201, #171 ) ;
#116 = DIRECTION ( 'NONE',  ( 3.491481338843133355E-15, -1.224646799147353207E-16, 1.000000000000000000 ) ) ;
#117 = ADVANCED_FACE ( 'NONE', ( #163 ), #322, .T. ) ;
#118 = LINE ( 'NONE', #306, #47 ) ;
#119 = DIRECTION ( 'NONE',  ( 1.903218546456022717E-15, 0.8571673007021097801, 0.5150380749100585964 ) ) ;
#120 = CARTESIAN_POINT ( 'NONE',  ( 3.107418391570388560E-13, 2.924531576190607009E-32, 89.00000000000000000 ) ) ;
#121 = VECTOR ( 'NONE', #271, 1000.000000000000000 ) ;
#122 =( LENGTH_UNIT ( ) NAMED_UNIT ( * ) SI_UNIT ( .MILLI., .METRE. ) );
#123 = ORIENTED_EDGE ( 'NONE', *, *, #204, .T. ) ;
#124 = LINE ( 'NONE', #172, #23 ) ;
#125 = APPROVAL_ROLE ( '' ) ;
#126 = EDGE_CURVE ( 'NONE', #269, #229, #140, .T. ) ;
#127 =( GEOMETRIC_REPRESENTATION_CONTEXT ( 3 ) GLOBAL_UNCERTAINTY_ASSIGNED_CONTEXT ( ( #154 ) ) GLOBAL_UNIT_ASSIGNED_CONTEXT ( ( #122, #96, #29 ) ) REPRESENTATION_CONTEXT ( 'NONE', 'WORKASPACE' ) );
#128 = EDGE_LOOP ( 'NONE', ( #296, #108 ) ) ;
#129 = DIRECTION ( 'NONE',  ( 0.0000000000000000000, 0.0000000000000000000, 1.000000000000000000 ) ) ;
#130 = APPROVAL_ROLE ( '' ) ;
#131 = EDGE_CURVE ( 'NONE', #323, #97, #301, .T. ) ;
#132 = PERSON ( 'UNSPECIFIED', 'UNSPECIFIED', 'UNSPECIFIED', ('UNSPECIFIED'), ('UNSPECIFIED'), ('UNSPECIFIED') ) ;
#133 = CONICAL_SURFACE ( 'NONE', #155, 4.899999999999990585, 1.029744258676649649 ) ;
#134 = SECURITY_CLASSIFICATION_LEVEL ( 'unclassified' ) ;
#135 = CYLINDRICAL_SURFACE ( 'NONE', #144, 4.899999999999992362 ) ;
#136 = DIRECTION ( 'NONE',  ( -4.275831445896958607E-31, -1.000000000000000000, -1.224646799147353207E-16 ) ) ;
#137 = EDGE_CURVE ( 'NONE', #254, #323, #63, .T. ) ;
#138 = APPROVAL_PERSON_ORGANIZATION ( #158, #264, #125 ) ;
#139 = LOCAL_TIME ( 9, 22, 47.00000000000000000, #238 ) ;
#140 = LINE ( 'NONE', #274, #57 ) ;
#141 = PRODUCT ( '57853', '57853', '', ( #292 ) ) ;
#142 = DIRECTION ( 'NONE',  ( -3.491481338843133355E-15, 1.224646799147353207E-16, -1.000000000000000000 ) ) ;
#143 = CARTESIAN_POINT ( 'NONE',  ( 1.082359215041371340E-13, 3.674411467521541834E-32, 31.00000000000000000 ) ) ;
#144 = AXIS2_PLACEMENT_3D ( 'NONE', #325, #17, #60 ) ;
#145 = DIRECTION ( 'NONE',  ( -2.382254525458718258E-15, -0.7071067811865469066, -0.7071067811865482389 ) ) ;
#146 = DIRECTION ( 'NONE',  ( 4.275831445896958607E-31, 1.000000000000000000, 1.224646799147353454E-16 ) ) ;
#147 = CARTESIAN_POINT ( 'NONE',  ( 3.107418391570388560E-13, 3.899999999999990141, 89.00000000000000000 ) ) ;
#148 = FACE_OUTER_BOUND ( 'NONE', #10, .T. ) ;
#149 = CONICAL_SURFACE ( 'NONE', #275, 4.899999999999990585, 1.029744258676649649 ) ;
#150 = ORIENTED_EDGE ( 'NONE', *, *, #102, .F. ) ;
#151 = CARTESIAN_POINT ( 'NONE',  ( 3.107418391570388560E-13, -1.089935651241144239E-14, 89.00000000000000000 ) ) ;
#152 = EDGE_CURVE ( 'NONE', #308, #323, #246, .T. ) ;
#153 = EDGE_LOOP ( 'NONE', ( #295, #101 ) ) ;
#154 = UNCERTAINTY_MEASURE_WITH_UNIT (LENGTH_MEASURE( 1.000000000000000082E-05 ), #122, 'distance_accuracy_value', 'NONE');
#155 = AXIS2_PLACEMENT_3D ( 'NONE', #45, #197, #98 ) ;
#156 = MANIFOLD_SOLID_BREP ( 'Corps-Déplacer/Copier1[2]', #170 ) ;
#157 = ADVANCED_FACE ( 'NONE', ( #64 ), #168, .T. ) ;
#158 = PERSON_AND_ORGANIZATION ( #132, #69 ) ;
#159 = ORIENTED_EDGE ( 'NONE', *, *, #112, .T. ) ;
#160 = VECTOR ( 'NONE', #243, 1000.000000000000000 ) ;
#161 = VERTEX_POINT ( 'NONE', #281 ) ;
#162 = CARTESIAN_POINT ( 'NONE',  ( 1.027967882904434633E-14, -4.899999999999990585, 2.944217033235071668 ) ) ;
#163 = FACE_OUTER_BOUND ( 'NONE', #72, .T. ) ;
#164 = PRODUCT_DEFINITION_SHAPE ( 'NONE', 'NONE',  #21 ) ;
#165 = VECTOR ( 'NONE', #38, 1000.000000000000000 ) ;
#166 = CARTESIAN_POINT ( 'NONE',  ( 3.107418391570388560E-13, 3.899999999999990141, 89.00000000000000000 ) ) ;
#167 = CC_DESIGN_PERSON_AND_ORGANIZATION_ASSIGNMENT ( #81, #233, ( #141 ) ) ;
#168 = CYLINDRICAL_SURFACE ( 'NONE', #260, 4.899999999999992362 ) ;
#169 = DIRECTION ( 'NONE',  ( 0.0000000000000000000, 1.000000000000000000, 0.0000000000000000000 ) ) ;
#170 = CLOSED_SHELL ( 'NONE', ( #37, #66, #239, #157, #12 ) ) ;
#171 = DIRECTION ( 'NONE',  ( 0.0000000000000000000, 1.000000000000000000, 0.0000000000000000000 ) ) ;
#172 = CARTESIAN_POINT ( 'NONE',  ( 3.112194514087063508E-13, -3.900000000000011902, 89.00000000000000000 ) ) ;
#173 = ORIENTED_EDGE ( 'NONE', *, *, #314, .F. ) ;
#174 = ORIENTED_EDGE ( 'NONE', *, *, #137, .T. ) ;
#175 = ADVANCED_FACE ( 'NONE', ( #200 ), #279, .T. ) ;
#176 = CARTESIAN_POINT ( 'NONE',  ( 1.087975576062655266E-14, 4.899999999999990585, 2.944217033235072556 ) ) ;
#177 = ORIENTED_EDGE ( 'NONE', *, *, #44, .T. ) ;
#178 = APPROVAL ( #8, 'UNSPECIFIED' ) ;
#179 = APPLICATION_PROTOCOL_DEFINITION ( 'international standard', 'config_control_design', 1994, #257 ) ;
#180 = DATE_AND_TIME ( #78, #289 ) ;
#181 = LOCAL_TIME ( 9, 22, 47.00000000000000000, #320 ) ;
#182 = CC_DESIGN_SECURITY_CLASSIFICATION ( #105, ( #288 ) ) ;
#183 = SHAPE_DEFINITION_REPRESENTATION ( #164, #235 ) ;
#184 = PRODUCT_RELATED_PRODUCT_CATEGORY ( 'detail', '', ( #141 ) ) ;
#185 = DATE_TIME_ROLE ( 'classification_date' ) ;
#186 = ORIENTED_EDGE ( 'NONE', *, *, #242, .T. ) ;
#187 = ORIENTED_EDGE ( 'NONE', *, *, #261, .T. ) ;
#188 = CIRCLE ( 'NONE', #87, 4.899999999999994138 ) ;
#189 = APPROVAL_PERSON_ORGANIZATION ( #287, #178, #130 ) ;
#190 = EDGE_CURVE ( 'NONE', #161, #254, #252, .T. ) ;
#191 = FACE_OUTER_BOUND ( 'NONE', #268, .T. ) ;
#192 = DIRECTION ( 'NONE',  ( 3.144375419407737850E-31, 1.000000000000000000, 8.850629979473522035E-17 ) ) ;
#193 = CARTESIAN_POINT ( 'NONE',  ( 3.107418391570388560E-13, -1.089935651241144239E-14, 89.00000000000000000 ) ) ;
#194 = EDGE_CURVE ( 'NONE', #321, #229, #118, .T. ) ;
#195 = DIRECTION ( 'NONE',  ( -3.491481338843133355E-15, 1.224646799147353207E-16, -1.000000000000000000 ) ) ;
#196 = FACE_OUTER_BOUND ( 'NONE', #56, .T. ) ;
#197 = DIRECTION ( 'NONE',  ( 3.491481338843133355E-15, -1.224646799147353207E-16, 1.000000000000000000 ) ) ;
#198 = CC_DESIGN_PERSON_AND_ORGANIZATION_ASSIGNMENT ( #315, #5, ( #288 ) ) ;
#199 = AXIS2_PLACEMENT_3D ( 'NONE', #336, #70, #27 ) ;
#200 = FACE_OUTER_BOUND ( 'NONE', #213, .T. ) ;
#201 = DIRECTION ( 'NONE',  ( -3.491481338843133355E-15, 1.224646799147353207E-16, -1.000000000000000000 ) ) ;
#202 = ORIENTED_EDGE ( 'NONE', *, *, #314, .T. ) ;
#203 = CARTESIAN_POINT ( 'NONE',  ( 3.072503578181957353E-13, -1.077689183249670724E-14, 88.00000000000000000 ) ) ;
#204 = EDGE_CURVE ( 'NONE', #254, #161, #222, .T. ) ;
#205 = ORIENTED_EDGE ( 'NONE', *, *, #152, .T. ) ;
#206 = CARTESIAN_POINT ( 'NONE',  ( 1.082359215041371340E-13, -3.796405077356795115E-15, 31.00000000000000000 ) ) ;
#207 = AXIS2_PLACEMENT_3D ( 'NONE', #193, #195, #270 ) ;
#208 = ORIENTED_EDGE ( 'NONE', *, *, #2, .F. ) ;
#209 = DATE_AND_TIME ( #259, #93 ) ;
#210 = PERSON_AND_ORGANIZATION_ROLE ( 'creator' ) ;
#211 = CC_DESIGN_APPROVAL ( #264, ( #288 ) ) ;
#212 = COORDINATED_UNIVERSAL_TIME_OFFSET ( 1, 0, .AHEAD. ) ;
#213 = EDGE_LOOP ( 'NONE', ( #187, #6, #335, #228 ) ) ;
#214 = APPROVAL_ROLE ( '' ) ;
#215 = EDGE_LOOP ( 'NONE', ( #310, #231, #150, #256 ) ) ;
#216 = LINE ( 'NONE', #39, #165 ) ;
#217 = AXIS2_PLACEMENT_3D ( 'NONE', #298, #41, #136 ) ;
#218 = AXIS2_PLACEMENT_3D ( 'NONE', #265, #129, #107 ) ;
#219 = DIRECTION ( 'NONE',  ( -4.275831445896958607E-31, -1.000000000000000000, -1.224646799147353207E-16 ) ) ;
#220 = DIRECTION ( 'NONE',  ( -3.491481338843133355E-15, 1.224646799147353207E-16, -1.000000000000000000 ) ) ;
#221 = DIRECTION ( 'NONE',  ( 0.0000000000000000000, 1.000000000000000000, 0.0000000000000000000 ) ) ;
#222 = CIRCLE ( 'NONE', #99, 3.900000000000001243 ) ;
#223 = CARTESIAN_POINT ( 'NONE',  ( 6.000769315822000171E-16, -4.899999999999992362, -6.000769315822041587E-16 ) ) ;
#224 = CARTESIAN_POINT ( 'NONE',  ( 3.107418391570388560E-13, -1.089935651241144239E-14, 89.00000000000000000 ) ) ;
#225 = CARTESIAN_POINT ( 'NONE',  ( 1.082359215041371340E-13, -3.796405077356795115E-15, 31.00000000000000000 ) ) ;
#226 = CIRCLE ( 'NONE', #79, 4.899999999999990585 ) ;
#227 = DIRECTION ( 'NONE',  ( -3.491481338843133355E-15, 1.224646799147353207E-16, -1.000000000000000000 ) ) ;
#228 = ORIENTED_EDGE ( 'NONE', *, *, #131, .F. ) ;
#229 = VERTEX_POINT ( 'NONE', #176 ) ;
#230 = DIRECTION ( 'NONE',  ( -3.491481338843133355E-15, 1.224646799147353207E-16, -1.000000000000000000 ) ) ;
#231 = ORIENTED_EDGE ( 'NONE', *, *, #2, .T. ) ;
#232 = CONICAL_SURFACE ( 'NONE', #317, 3.900000000000001243, 0.7853981633974476129 ) ;
#233 = PERSON_AND_ORGANIZATION_ROLE ( 'design_owner' ) ;
#234 = EDGE_CURVE ( 'NONE', #75, #269, #62, .T. ) ;
#235 = ADVANCED_BREP_SHAPE_REPRESENTATION ( '57853', ( #278, #156, #218 ), #127 ) ;
#236 = APPROVAL_DATE_TIME ( #80, #178 ) ;
#237 = PERSON_AND_ORGANIZATION_ROLE ( 'creator' ) ;
#238 = COORDINATED_UNIVERSAL_TIME_OFFSET ( 1, 0, .AHEAD. ) ;
#239 = ADVANCED_FACE ( 'NONE', ( #277 ), #133, .T. ) ;
#240 = DIRECTION ( 'NONE',  ( -3.491481338843133355E-15, 1.224646799147353207E-16, -1.000000000000000000 ) ) ;
#241 = CARTESIAN_POINT ( 'NONE',  ( 1.027967882904434791E-14, -3.605625965746447222E-16, 2.944217033235072112 ) ) ;
#242 = EDGE_CURVE ( 'NONE', #58, #229, #74, .T. ) ;
#243 = DIRECTION ( 'NONE',  ( 1.798245827342160317E-15, -0.8571673007021098911, 0.5150380749100582634 ) ) ;
#244 = CARTESIAN_POINT ( 'NONE',  ( 5.985787709817290075E-14, -4.899999999999996803, 31.00000000000000000 ) ) ;
#245 = PLANE ( 'NONE',  #68 ) ;
#246 = CIRCLE ( 'NONE', #9, 4.900000000000000355 ) ;
#247 = DIRECTION ( 'NONE',  ( -3.491481338843133355E-15, 1.224646799147353207E-16, -1.000000000000000000 ) ) ;
#248 = DIRECTION ( 'NONE',  ( 4.275831445896958607E-31, 1.000000000000000000, 1.224646799147353207E-16 ) ) ;
#249 = DIRECTION ( 'NONE',  ( -3.491481338843133355E-15, 1.224646799147353207E-16, -1.000000000000000000 ) ) ;
#250 = CLOSED_SHELL ( 'NONE', ( #284, #175, #26, #291, #117, #318 ) ) ;
#251 = CIRCLE ( 'NONE', #18, 4.899999999999994138 ) ;
#252 = CIRCLE ( 'NONE', #115, 3.900000000000001243 ) ;
#253 = CARTESIAN_POINT ( 'NONE',  ( 0.0000000000000000000, 0.0000000000000000000, 0.0000000000000000000 ) ) ;
#254 = VERTEX_POINT ( 'NONE', #147 ) ;
#255 = CARTESIAN_POINT ( 'NONE',  ( 1.027967882904434791E-14, -3.605625965746447222E-16, 2.944217033235072112 ) ) ;
#256 = ORIENTED_EDGE ( 'NONE', *, *, #126, .F. ) ;
#257 = APPLICATION_CONTEXT ( 'configuration controlled 3d designs of mechanical parts and assemblies' ) ;
#258 = COORDINATED_UNIVERSAL_TIME_OFFSET ( 1, 0, .AHEAD. ) ;
#259 = CALENDAR_DATE ( 2021, 3, 9 ) ;
#260 = AXIS2_PLACEMENT_3D ( 'NONE', #71, #309, #248 ) ;
#261 = EDGE_CURVE ( 'NONE', #323, #308, #43, .T. ) ;
#262 = PERSON_AND_ORGANIZATION ( #132, #69 ) ;
#263 = CALENDAR_DATE ( 2021, 3, 9 ) ;
#264 = APPROVAL ( #35, 'UNSPECIFIED' ) ;
#265 = CARTESIAN_POINT ( 'NONE',  ( 0.0000000000000000000, 0.0000000000000000000, 0.0000000000000000000 ) ) ;
#266 = AXIS2_PLACEMENT_3D ( 'NONE', #86, #240, #302 ) ;
#267 = ORIENTED_EDGE ( 'NONE', *, *, #102, .T. ) ;
#268 = EDGE_LOOP ( 'NONE', ( #50, #159 ) ) ;
#269 = VERTEX_POINT ( 'NONE', #19 ) ;
#270 = DIRECTION ( 'NONE',  ( 0.0000000000000000000, 1.000000000000000000, 0.0000000000000000000 ) ) ;
#271 = DIRECTION ( 'NONE',  ( -2.468850131082267316E-15, 0.7071067811865471286, -0.7071067811865479058 ) ) ;
#272 = EDGE_LOOP ( 'NONE', ( #123, #202, #313, #293 ) ) ;
#273 = APPLICATION_CONTEXT ( 'configuration controlled 3d designs of mechanical parts and assemblies' ) ;
#274 = CARTESIAN_POINT ( 'NONE',  ( 2.095157408489506547E-30, 4.899999999999992362, 6.000769315822020879E-16 ) ) ;
#275 = AXIS2_PLACEMENT_3D ( 'NONE', #85, #116, #11 ) ;
#276 = CC_DESIGN_DATE_AND_TIME_ASSIGNMENT ( #180, #185, ( #105 ) ) ;
#277 = FACE_OUTER_BOUND ( 'NONE', #337, .T. ) ;
#278 = MANIFOLD_SOLID_BREP ( 'Corps-Déplacer/Copier1[1]', #250 ) ;
#279 = CYLINDRICAL_SURFACE ( 'NONE', #4, 4.899999999999996803 ) ;
#280 = ORIENTED_EDGE ( 'NONE', *, *, #44, .F. ) ;
#281 = CARTESIAN_POINT ( 'NONE',  ( 3.095349430792421202E-13, -3.900000000000011902, 89.00000000000000000 ) ) ;
#282 = ORIENTED_EDGE ( 'NONE', *, *, #112, .F. ) ;
#283 = APPROVAL_DATE_TIME ( #51, #106 ) ;
#284 = ADVANCED_FACE ( 'NONE', ( #303 ), #232, .T. ) ;
#285 = CALENDAR_DATE ( 2021, 3, 9 ) ;
#286 = DESIGN_CONTEXT ( 'detailed design', #273, 'design' ) ;
#287 = PERSON_AND_ORGANIZATION ( #132, #69 ) ;
#288 = PRODUCT_DEFINITION_FORMATION_WITH_SPECIFIED_SOURCE ( 'ANY', '', #141, .NOT_KNOWN. ) ;
#289 = LOCAL_TIME ( 9, 22, 47.00000000000000000, #212 ) ;
#290 = PERSON_AND_ORGANIZATION ( #132, #69 ) ;
#291 = ADVANCED_FACE ( 'NONE', ( #148 ), #331, .T. ) ;
#292 = MECHANICAL_CONTEXT ( 'NONE', #257, 'mechanical' ) ;
#293 = ORIENTED_EDGE ( 'NONE', *, *, #137, .F. ) ;
#294 = AXIS2_PLACEMENT_3D ( 'NONE', #255, #247, #73 ) ;
#295 = ORIENTED_EDGE ( 'NONE', *, *, #305, .F. ) ;
#296 = ORIENTED_EDGE ( 'NONE', *, *, #204, .F. ) ;
#297 = CC_DESIGN_PERSON_AND_ORGANIZATION_ASSIGNMENT ( #290, #210, ( #21 ) ) ;
#298 = CARTESIAN_POINT ( 'NONE',  ( 1.082359215041371340E-13, 3.674411467521541834E-32, 31.00000000000000000 ) ) ;
#299 = LINE ( 'NONE', #223, #31 ) ;
#300 = VECTOR ( 'NONE', #220, 1000.000000000000000 ) ;
#301 = LINE ( 'NONE', #113, #300 ) ;
#302 = DIRECTION ( 'NONE',  ( 0.0000000000000000000, 1.000000000000000000, 0.0000000000000000000 ) ) ;
#303 = FACE_OUTER_BOUND ( 'NONE', #272, .T. ) ;
#304 = LOCAL_TIME ( 9, 22, 47.00000000000000000, #104 ) ;
#305 = EDGE_CURVE ( 'NONE', #269, #75, #251, .T. ) ;
#306 = CARTESIAN_POINT ( 'NONE',  ( 1.087975576062655266E-14, 4.899999999999990585, 2.944217033235072556 ) ) ;
#307 = DIRECTION ( 'NONE',  ( -3.491481338843133355E-15, 1.224646799147353207E-16, -1.000000000000000000 ) ) ;
#308 = VERTEX_POINT ( 'NONE', #92 ) ;
#309 = DIRECTION ( 'NONE',  ( -3.491481338843133355E-15, 1.224646799147353207E-16, -1.000000000000000000 ) ) ;
#310 = ORIENTED_EDGE ( 'NONE', *, *, #305, .T. ) ;
#311 = AXIS2_PLACEMENT_3D ( 'NONE', #225, #307, #42 ) ;
#312 = DIRECTION ( 'NONE',  ( 0.0000000000000000000, 1.000000000000000000, 0.0000000000000000000 ) ) ;
#313 = ORIENTED_EDGE ( 'NONE', *, *, #261, .F. ) ;
#314 = EDGE_CURVE ( 'NONE', #161, #308, #124, .T. ) ;
#315 = PERSON_AND_ORGANIZATION ( #132, #69 ) ;
#316 = APPROVAL_DATE_TIME ( #54, #264 ) ;
#317 = AXIS2_PLACEMENT_3D ( 'NONE', #224, #230, #312 ) ;
#318 = ADVANCED_FACE ( 'NONE', ( #330 ), #46, .F. ) ;
#319 = ORIENTED_EDGE ( 'NONE', *, *, #82, .F. ) ;
#320 = COORDINATED_UNIVERSAL_TIME_OFFSET ( 1, 0, .AHEAD. ) ;
#321 = VERTEX_POINT ( 'NONE', #253 ) ;
#322 = CONICAL_SURFACE ( 'NONE', #207, 3.900000000000001243, 0.7853981633974476129 ) ;
#323 = VERTEX_POINT ( 'NONE', #24 ) ;
#324 = CC_DESIGN_PERSON_AND_ORGANIZATION_ASSIGNMENT ( #32, #237, ( #288 ) ) ;
#325 = CARTESIAN_POINT ( 'NONE',  ( 0.0000000000000000000, 0.0000000000000000000, 0.0000000000000000000 ) ) ;
#326 = DIRECTION ( 'NONE',  ( -3.491481338843133355E-15, 1.224646799147353207E-16, -1.000000000000000000 ) ) ;
#327 = FACE_OUTER_BOUND ( 'NONE', #215, .T. ) ;
#328 = CC_DESIGN_DATE_AND_TIME_ASSIGNMENT ( #209, #55, ( #21 ) ) ;
#329 = DIRECTION ( 'NONE',  ( -3.491481338843133355E-15, 1.224646799147353207E-16, -1.000000000000000000 ) ) ;
#330 = FACE_OUTER_BOUND ( 'NONE', #128, .T. ) ;
#331 = CYLINDRICAL_SURFACE ( 'NONE', #199, 4.899999999999996803 ) ;
#332 = AXIS2_PLACEMENT_3D ( 'NONE', #203, #249, #22 ) ;
#333 = CC_DESIGN_APPROVAL ( #178, ( #105 ) ) ;
#334 = CARTESIAN_POINT ( 'NONE',  ( 3.107418391570388560E-13, -1.089935651241144239E-14, 89.00000000000000000 ) ) ;
#335 = ORIENTED_EDGE ( 'NONE', *, *, #90, .F. ) ;
#336 = CARTESIAN_POINT ( 'NONE',  ( 0.0000000000000000000, 0.0000000000000000000, 0.0000000000000000000 ) ) ;
#337 = EDGE_LOOP ( 'NONE', ( #25, #177, #186 ) ) ;
ENDSEC;
END-ISO-10303-21;
