ISO-10303-21;
HEADER;
FILE_DESCRIPTION (( 'STEP AP203' ),
    '1' );
FILE_NAME ('57852.step',
    '2021-09-03T07:22:46',
    ( '' ),
    ( '' ),
    'SwSTEP 2.0',
    'SolidWorks 2019',
    '' );
FILE_SCHEMA (( 'CONFIG_CONTROL_DESIGN' ));
ENDSEC;

DATA;
#1 = ADVANCED_FACE ( 'NONE', ( #321 ), #322, .T. ) ;
#2 = APPROVAL_DATE_TIME ( #337, #281 ) ;
#3 = CIRCLE ( 'NONE', #28, 3.600000000000000533 ) ;
#4 = SECURITY_CLASSIFICATION ( '', '', #156 ) ;
#5 = DATE_AND_TIME ( #27, #101 ) ;
#6 = ORIENTED_EDGE ( 'NONE', *, *, #185, .F. ) ;
#7 = FACE_OUTER_BOUND ( 'NONE', #266, .T. ) ;
#8 = ORIENTED_EDGE ( 'NONE', *, *, #69, .F. ) ;
#9 = ORIENTED_EDGE ( 'NONE', *, *, #229, .F. ) ;
#10 = CALENDAR_DATE ( 2021, 3, 9 ) ;
#11 = CARTESIAN_POINT ( 'NONE',  ( 5.388445916248332319E-16, -4.399999999999996803, -5.388445916248369790E-16 ) ) ;
#12 = PRODUCT_DEFINITION ( 'UNKNOWN', '', #241, #201 ) ;
#13 = DIRECTION ( 'NONE',  ( 0.0000000000000000000, 1.000000000000000000, 0.0000000000000000000 ) ) ;
#14 = ORIENTED_EDGE ( 'NONE', *, *, #188, .T. ) ;
#15 = VERTEX_POINT ( 'NONE', #110 ) ;
#16 = CARTESIAN_POINT ( 'NONE',  ( 0.0000000000000000000, 0.0000000000000000000, 0.0000000000000000000 ) ) ;
#17 = CIRCLE ( 'NONE', #100, 4.399999999999993250 ) ;
#18 = AXIS2_PLACEMENT_3D ( 'NONE', #152, #200, #26 ) ;
#19 = DIRECTION ( 'NONE',  ( -3.491481338843133355E-15, 1.224646799147353454E-16, -1.000000000000000000 ) ) ;
#20 = LINE ( 'NONE', #250, #248 ) ;
#21 = EDGE_CURVE ( 'NONE', #259, #180, #39, .T. ) ;
#22 = CARTESIAN_POINT ( 'NONE',  ( 1.964109477007244733E-13, -4.400000000000011013, 83.20000000000001705 ) ) ;
#23 = DIRECTION ( 'NONE',  ( 3.501690807976800462E-31, 1.000000000000000000, 9.856383386231881014E-17 ) ) ;
#24 = LOCAL_TIME ( 9, 22, 46.00000000000000000, #236 ) ;
#25 = EDGE_CURVE ( 'NONE', #86, #130, #49, .T. ) ;
#26 = DIRECTION ( 'NONE',  ( 3.501690807976800462E-31, 1.000000000000000000, 9.856383386231881014E-17 ) ) ;
#27 = CALENDAR_DATE ( 2021, 3, 9 ) ;
#28 = AXIS2_PLACEMENT_3D ( 'NONE', #46, #334, #73 ) ;
#29 = CARTESIAN_POINT ( 'NONE',  ( 0.0000000000000000000, 0.0000000000000000000, 0.0000000000000000000 ) ) ;
#30 = ORIENTED_EDGE ( 'NONE', *, *, #262, .F. ) ;
#31 = DIRECTION ( 'NONE',  ( -3.501690807976800462E-31, -1.000000000000000000, -9.856383386231881014E-17 ) ) ;
#32 = APPROVAL_STATUS ( 'not_yet_approved' ) ;
#33 = VECTOR ( 'NONE', #109, 1000.000000000000000 ) ;
#34 = ORIENTED_EDGE ( 'NONE', *, *, #131, .F. ) ;
#35 = ADVANCED_FACE ( 'NONE', ( #108 ), #213, .F. ) ;
#36 = ORIENTED_EDGE ( 'NONE', *, *, #242, .T. ) ;
#37 = CARTESIAN_POINT ( 'NONE',  ( 9.769576601378942572E-15, 4.399999999999989697, 2.643786723721289089 ) ) ;
#38 = APPROVAL_ROLE ( '' ) ;
#39 = LINE ( 'NONE', #37, #263 ) ;
#40 = CARTESIAN_POINT ( 'NONE',  ( 1.881365836194660806E-30, 4.399999999999996803, 5.388445916248351055E-16 ) ) ;
#41 = FACE_OUTER_BOUND ( 'NONE', #115, .T. ) ;
#42 = AXIS2_PLACEMENT_3D ( 'NONE', #293, #292, #237 ) ;
#43 = CIRCLE ( 'NONE', #141, 3.600000000000000533 ) ;
#44 = LINE ( 'NONE', #40, #202 ) ;
#45 = ADVANCED_FACE ( 'NONE', ( #58 ), #135, .F. ) ;
#46 = CARTESIAN_POINT ( 'NONE',  ( 2.932844324628232018E-13, -1.028703311283776980E-14, 84.00000000000000000 ) ) ;
#47 = DIRECTION ( 'NONE',  ( 0.0000000000000000000, 1.000000000000000000, 0.0000000000000000000 ) ) ;
#48 = MANIFOLD_SOLID_BREP ( 'Corps-Déplacer/Copier1[1]', #252 ) ;
#49 = CIRCLE ( 'NONE', #277, 4.399999999999993250 ) ;
#50 = AXIS2_PLACEMENT_3D ( 'NONE', #305, #220, #23 ) ;
#51 =( LENGTH_UNIT ( ) NAMED_UNIT ( * ) SI_UNIT ( .MILLI., .METRE. ) );
#52 = DIRECTION ( 'NONE',  ( 3.491481338843133355E-15, -1.224646799147353454E-16, 1.000000000000000000 ) ) ;
#53 = DIRECTION ( 'NONE',  ( 0.0000000000000000000, 0.0000000000000000000, 1.000000000000000000 ) ) ;
#54 = MANIFOLD_SOLID_BREP ( 'Corps-Déplacer/Copier1[2]', #221 ) ;
#55 = FACE_OUTER_BOUND ( 'NONE', #243, .T. ) ;
#56 = APPROVAL_DATE_TIME ( #114, #138 ) ;
#57 = ORIENTED_EDGE ( 'NONE', *, *, #242, .F. ) ;
#58 = FACE_OUTER_BOUND ( 'NONE', #208, .T. ) ;
#59 = AXIS2_PLACEMENT_3D ( 'NONE', #29, #53, #102 ) ;
#60 = CYLINDRICAL_SURFACE ( 'NONE', #308, 4.399999999999996803 ) ;
#61 = PERSON_AND_ORGANIZATION_ROLE ( 'classification_officer' ) ;
#62 = CARTESIAN_POINT ( 'NONE',  ( 0.0000000000000000000, 0.0000000000000000000, 0.0000000000000000000 ) ) ;
#63 = VERTEX_POINT ( 'NONE', #160 ) ;
#64 = CONICAL_SURFACE ( 'NONE', #232, 4.399999999999989697, 1.029744258676649649 ) ;
#65 = AXIS2_PLACEMENT_3D ( 'NONE', #276, #258, #31 ) ;
#66 = DIRECTION ( 'NONE',  ( 1.903218546456022717E-15, 0.8571673007021097801, 0.5150380749100585964 ) ) ;
#67 = DIRECTION ( 'NONE',  ( -3.491481338843133355E-15, 1.224646799147353454E-16, -1.000000000000000000 ) ) ;
#68 = DIRECTION ( 'NONE',  ( -3.491481338843133355E-15, 1.224646799147353454E-16, -1.000000000000000000 ) ) ;
#69 = EDGE_CURVE ( 'NONE', #230, #86, #139, .T. ) ;
#70 = CIRCLE ( 'NONE', #217, 4.400000000000000355 ) ;
#71 = DIRECTION ( 'NONE',  ( -3.491481338843133355E-15, 1.224646799147353454E-16, -1.000000000000000000 ) ) ;
#72 = DIRECTION ( 'NONE',  ( -3.491481338843133355E-15, 1.224646799147353454E-16, -1.000000000000000000 ) ) ;
#73 = DIRECTION ( 'NONE',  ( 0.0000000000000000000, 1.000000000000000000, 0.0000000000000000000 ) ) ;
#74 = CIRCLE ( 'NONE', #226, 4.399999999999993250 ) ;
#75 = AXIS2_PLACEMENT_3D ( 'NONE', #77, #225, #80 ) ;
#76 = CALENDAR_DATE ( 2021, 3, 9 ) ;
#77 = CARTESIAN_POINT ( 'NONE',  ( 1.012529588264508673E-13, -3.551475717527324818E-15, 29.00000000000000000 ) ) ;
#78 = EDGE_LOOP ( 'NONE', ( #184, #36, #239, #215 ) ) ;
#79 = PERSON ( 'UNSPECIFIED', 'UNSPECIFIED', 'UNSPECIFIED', ('UNSPECIFIED'), ('UNSPECIFIED'), ('UNSPECIFIED') ) ;
#80 = DIRECTION ( 'NONE',  ( 0.0000000000000000000, 1.000000000000000000, 0.0000000000000000000 ) ) ;
#81 = CC_DESIGN_PERSON_AND_ORGANIZATION_ASSIGNMENT ( #212, #288, ( #241 ) ) ;
#82 = FACE_OUTER_BOUND ( 'NONE', #313, .T. ) ;
#83 = LOCAL_TIME ( 9, 22, 46.00000000000000000, #203 ) ;
#84 = ADVANCED_FACE ( 'NONE', ( #89 ), #60, .T. ) ;
#85 = VERTEX_POINT ( 'NONE', #194 ) ;
#86 = VERTEX_POINT ( 'NONE', #167 ) ;
#87 = VECTOR ( 'NONE', #333, 1000.000000000000114 ) ;
#88 = ORIENTED_EDGE ( 'NONE', *, *, #25, .T. ) ;
#89 = FACE_OUTER_BOUND ( 'NONE', #270, .T. ) ;
#90 = APPLICATION_CONTEXT ( 'configuration controlled 3d designs of mechanical parts and assemblies' ) ;
#91 = ORIENTED_EDGE ( 'NONE', *, *, #21, .F. ) ;
#92 = DIRECTION ( 'NONE',  ( 4.275831445896959482E-31, 1.000000000000000000, 1.224646799147353454E-16 ) ) ;
#93 = EDGE_CURVE ( 'NONE', #130, #86, #74, .T. ) ;
#94 = DIRECTION ( 'NONE',  ( -3.491481338843133355E-15, 1.224646799147353454E-16, -1.000000000000000000 ) ) ;
#95 = CARTESIAN_POINT ( 'NONE',  ( 5.388445916248325417E-16, -4.399999999999991473, -5.388445916248363874E-16 ) ) ;
#96 = CYLINDRICAL_SURFACE ( 'NONE', #182, 4.399999999999996803 ) ;
#97 = DIRECTION ( 'NONE',  ( 4.275831445896959482E-31, 1.000000000000000000, 1.224646799147353454E-16 ) ) ;
#98 = PERSON_AND_ORGANIZATION ( #79, #278 ) ;
#99 = ORIENTED_EDGE ( 'NONE', *, *, #229, .T. ) ;
#100 = AXIS2_PLACEMENT_3D ( 'NONE', #144, #71, #223 ) ;
#101 = LOCAL_TIME ( 9, 22, 46.00000000000000000, #309 ) ;
#102 = DIRECTION ( 'NONE',  ( 1.000000000000000000, 0.0000000000000000000, 0.0000000000000000000 ) ) ;
#103 = PERSON_AND_ORGANIZATION ( #79, #278 ) ;
#104 = CC_DESIGN_PERSON_AND_ORGANIZATION_ASSIGNMENT ( #98, #197, ( #12 ) ) ;
#105 = ORIENTED_EDGE ( 'NONE', *, *, #188, .F. ) ;
#106 = APPROVAL_ROLE ( '' ) ;
#107 = EDGE_CURVE ( 'NONE', #63, #15, #17, .T. ) ;
#108 = FACE_OUTER_BOUND ( 'NONE', #283, .T. ) ;
#109 = DIRECTION ( 'NONE',  ( -3.491481338843133355E-15, 1.224646799147353454E-16, -1.000000000000000000 ) ) ;
#110 = CARTESIAN_POINT ( 'NONE',  ( 1.012529588264508673E-13, 4.399999999999989697, 29.00000000000000000 ) ) ;
#111 = CONICAL_SURFACE ( 'NONE', #298, 3.600000000000000533, 0.7853981633974512766 ) ;
#112 = ORIENTED_EDGE ( 'NONE', *, *, #185, .T. ) ;
#113 = CC_DESIGN_PERSON_AND_ORGANIZATION_ASSIGNMENT ( #319, #61, ( #4 ) ) ;
#114 = DATE_AND_TIME ( #10, #24 ) ;
#115 = EDGE_LOOP ( 'NONE', ( #287, #175 ) ) ;
#116 = DIRECTION ( 'NONE',  ( -3.491481338843133355E-15, 1.224646799147353454E-16, -1.000000000000000000 ) ) ;
#117 = ADVANCED_FACE ( 'NONE', ( #41 ), #190, .T. ) ;
#118 = DIRECTION ( 'NONE',  ( 0.0000000000000000000, 1.000000000000000000, 0.0000000000000000000 ) ) ;
#119 = DIRECTION ( 'NONE',  ( -2.382254525458708792E-15, -0.7071067811865495711, -0.7071067811865455743 ) ) ;
#120 = DIRECTION ( 'NONE',  ( -3.491481338843133355E-15, 1.224646799147353454E-16, -1.000000000000000000 ) ) ;
#121 = DIRECTION ( 'NONE',  ( -3.491481338843133355E-15, 1.224646799147353454E-16, -1.000000000000000000 ) ) ;
#122 = PRODUCT_RELATED_PRODUCT_CATEGORY ( 'detail', '', ( #145 ) ) ;
#123 = APPROVAL_STATUS ( 'not_yet_approved' ) ;
#124 = ADVANCED_FACE ( 'NONE', ( #300 ), #96, .T. ) ;
#125 = UNCERTAINTY_MEASURE_WITH_UNIT (LENGTH_MEASURE( 1.000000000000000082E-05 ), #51, 'distance_accuracy_value', 'NONE');
#126 = DIRECTION ( 'NONE',  ( -3.491481338843133355E-15, 1.224646799147353454E-16, -1.000000000000000000 ) ) ;
#127 = CARTESIAN_POINT ( 'NONE',  ( 0.0000000000000000000, 0.0000000000000000000, 0.0000000000000000000 ) ) ;
#128 = ORIENTED_EDGE ( 'NONE', *, *, #131, .T. ) ;
#129 = MECHANICAL_CONTEXT ( 'NONE', #90, 'mechanical' ) ;
#130 = VERTEX_POINT ( 'NONE', #307 ) ;
#131 = EDGE_CURVE ( 'NONE', #85, #231, #3, .T. ) ;
#132 = CC_DESIGN_APPROVAL ( #331, ( #4 ) ) ;
#133 = VERTEX_POINT ( 'NONE', #169 ) ;
#134 = CALENDAR_DATE ( 2021, 3, 9 ) ;
#135 = PLANE ( 'NONE',  #42 ) ;
#136 = VERTEX_POINT ( 'NONE', #149 ) ;
#137 = SHAPE_DEFINITION_REPRESENTATION ( #246, #291 ) ;
#138 = APPROVAL ( #161, 'UNSPECIFIED' ) ;
#139 = LINE ( 'NONE', #11, #33 ) ;
#140 = AXIS2_PLACEMENT_3D ( 'NONE', #325, #206, #211 ) ;
#141 = AXIS2_PLACEMENT_3D ( 'NONE', #154, #314, #173 ) ;
#142 = EDGE_LOOP ( 'NONE', ( #187, #112, #30, #227 ) ) ;
#143 = DIRECTION ( 'NONE',  ( 1.798245827342160317E-15, -0.8571673007021098911, 0.5150380749100582634 ) ) ;
#144 = CARTESIAN_POINT ( 'NONE',  ( 1.012529588264508673E-13, -3.551475717527324818E-15, 29.00000000000000000 ) ) ;
#145 = PRODUCT ( '57852', '57852', '', ( #129 ) ) ;
#146 = AXIS2_PLACEMENT_3D ( 'NONE', #330, #120, #318 ) ;
#147 = LINE ( 'NONE', #249, #172 ) ;
#148 = CARTESIAN_POINT ( 'NONE',  ( 2.932844324628232018E-13, 3.599999999999989875, 84.00000000000000000 ) ) ;
#149 = CARTESIAN_POINT ( 'NONE',  ( 9.230732009754103819E-15, -4.399999999999989697, 2.643786723721288201 ) ) ;
#150 = APPROVAL_PERSON_ORGANIZATION ( #199, #281, #106 ) ;
#151 = EDGE_CURVE ( 'NONE', #231, #133, #301, .T. ) ;
#152 = CARTESIAN_POINT ( 'NONE',  ( 9.230732009754105396E-15, -3.237704948833544344E-16, 2.643786723721288645 ) ) ;
#153 = APPROVAL_PERSON_ORGANIZATION ( #261, #138, #38 ) ;
#154 = CARTESIAN_POINT ( 'NONE',  ( 2.932844324628232018E-13, -1.028703311283776980E-14, 84.00000000000000000 ) ) ;
#155 = EDGE_CURVE ( 'NONE', #15, #180, #272, .T. ) ;
#156 = SECURITY_CLASSIFICATION_LEVEL ( 'unclassified' ) ;
#157 = CIRCLE ( 'NONE', #316, 4.400000000000000355 ) ;
#158 = ORIENTED_EDGE ( 'NONE', *, *, #69, .T. ) ;
#159 = DIRECTION ( 'NONE',  ( -3.491481338843133355E-15, 1.224646799147353454E-16, -1.000000000000000000 ) ) ;
#160 = CARTESIAN_POINT ( 'NONE',  ( 5.578069000972728487E-14, -4.399999999999997691, 29.00000000000000000 ) ) ;
#161 = APPROVAL_STATUS ( 'not_yet_approved' ) ;
#162 = ORIENTED_EDGE ( 'NONE', *, *, #174, .T. ) ;
#163 = CC_DESIGN_APPROVAL ( #281, ( #12 ) ) ;
#164 = EDGE_CURVE ( 'NONE', #133, #230, #70, .T. ) ;
#165 = CARTESIAN_POINT ( 'NONE',  ( 1.012529588264508673E-13, -3.551475717527324818E-15, 29.00000000000000000 ) ) ;
#166 = CARTESIAN_POINT ( 'NONE',  ( 9.769576601378942572E-15, 4.399999999999989697, 2.643786723721289089 ) ) ;
#167 = CARTESIAN_POINT ( 'NONE',  ( 1.964109477007245742E-13, -4.399999999999996803, 29.00000000000000000 ) ) ;
#168 = AXIS2_PLACEMENT_3D ( 'NONE', #336, #195, #191 ) ;
#169 = CARTESIAN_POINT ( 'NONE',  ( 2.904912473917487456E-13, 4.399999999999989697, 83.20000000000001705 ) ) ;
#170 = DIRECTION ( 'NONE',  ( -3.491481338843133355E-15, 1.224646799147353454E-16, -1.000000000000000000 ) ) ;
#171 = CARTESIAN_POINT ( 'NONE',  ( 2.932844324628232018E-13, -1.028703311283776980E-14, 84.00000000000000000 ) ) ;
#172 = VECTOR ( 'NONE', #119, 1000.000000000000114 ) ;
#173 = DIRECTION ( 'NONE',  ( 0.0000000000000000000, 1.000000000000000000, 0.0000000000000000000 ) ) ;
#174 = EDGE_CURVE ( 'NONE', #259, #136, #20, .T. ) ;
#175 = ORIENTED_EDGE ( 'NONE', *, *, #107, .F. ) ;
#176 = CARTESIAN_POINT ( 'NONE',  ( 0.0000000000000000000, 0.0000000000000000000, 0.0000000000000000000 ) ) ;
#177 = AXIS2_PLACEMENT_3D ( 'NONE', #176, #126, #228 ) ;
#178 = CARTESIAN_POINT ( 'NONE',  ( 9.230732009754105396E-15, -3.237704948833544344E-16, 2.643786723721288645 ) ) ;
#179 = ORIENTED_EDGE ( 'NONE', *, *, #107, .T. ) ;
#180 = VERTEX_POINT ( 'NONE', #166 ) ;
#181 = APPROVAL_ROLE ( '' ) ;
#182 = AXIS2_PLACEMENT_3D ( 'NONE', #16, #72, #92 ) ;
#183 = LOCAL_TIME ( 9, 22, 46.00000000000000000, #238 ) ;
#184 = ORIENTED_EDGE ( 'NONE', *, *, #286, .T. ) ;
#185 = EDGE_CURVE ( 'NONE', #63, #136, #245, .T. ) ;
#186 = ORIENTED_EDGE ( 'NONE', *, *, #25, .F. ) ;
#187 = ORIENTED_EDGE ( 'NONE', *, *, #304, .T. ) ;
#188 = EDGE_CURVE ( 'NONE', #230, #133, #157, .T. ) ;
#189 = ORIENTED_EDGE ( 'NONE', *, *, #235, .T. ) ;
#190 = PLANE ( 'NONE',  #168 ) ;
#191 = DIRECTION ( 'NONE',  ( -4.275831445896959482E-31, -1.000000000000000000, -1.224646799147353454E-16 ) ) ;
#192 = CARTESIAN_POINT ( 'NONE',  ( 2.904912473917487456E-13, -1.018906136890598294E-14, 83.20000000000001705 ) ) ;
#193 = CC_DESIGN_DATE_AND_TIME_ASSIGNMENT ( #5, #312, ( #12 ) ) ;
#194 = CARTESIAN_POINT ( 'NONE',  ( 2.923776986469448639E-13, -3.600000000000010747, 84.00000000000000000 ) ) ;
#195 = DIRECTION ( 'NONE',  ( 3.491481338843133355E-15, -1.224646799147353454E-16, 1.000000000000000000 ) ) ;
#196 = ADVANCED_FACE ( 'NONE', ( #251 ), #111, .T. ) ;
#197 = PERSON_AND_ORGANIZATION_ROLE ( 'creator' ) ;
#198 = ORIENTED_EDGE ( 'NONE', *, *, #93, .T. ) ;
#199 = PERSON_AND_ORGANIZATION ( #79, #278 ) ;
#200 = DIRECTION ( 'NONE',  ( -3.491481338843133355E-15, 1.224646799147353454E-16, -1.000000000000000000 ) ) ;
#201 = DESIGN_CONTEXT ( 'detailed design', #204, 'design' ) ;
#202 = VECTOR ( 'NONE', #116, 1000.000000000000000 ) ;
#203 = COORDINATED_UNIVERSAL_TIME_OFFSET ( 1, 0, .AHEAD. ) ;
#204 = APPLICATION_CONTEXT ( 'configuration controlled 3d designs of mechanical parts and assemblies' ) ;
#205 = CALENDAR_DATE ( 2021, 3, 9 ) ;
#206 = DIRECTION ( 'NONE',  ( -3.491481338843133355E-15, 1.224646799147353454E-16, -1.000000000000000000 ) ) ;
#207 = PERSON_AND_ORGANIZATION_ROLE ( 'design_supplier' ) ;
#208 = EDGE_LOOP ( 'NONE', ( #198, #88 ) ) ;
#209 = VECTOR ( 'NONE', #170, 1000.000000000000000 ) ;
#210 = CIRCLE ( 'NONE', #75, 4.399999999999993250 ) ;
#211 = DIRECTION ( 'NONE',  ( 4.275831445896959482E-31, 1.000000000000000000, 1.224646799147353454E-16 ) ) ;
#212 = PERSON_AND_ORGANIZATION ( #79, #278 ) ;
#213 = PLANE ( 'NONE',  #140 ) ;
#214 = DATE_AND_TIME ( #205, #183 ) ;
#215 = ORIENTED_EDGE ( 'NONE', *, *, #151, .F. ) ;
#216 = FACE_OUTER_BOUND ( 'NONE', #142, .T. ) ;
#217 = AXIS2_PLACEMENT_3D ( 'NONE', #273, #332, #274 ) ;
#218 = CARTESIAN_POINT ( 'NONE',  ( 2.932844324628232018E-13, 3.599999999999989875, 84.00000000000000000 ) ) ;
#219 = CARTESIAN_POINT ( 'NONE',  ( 1.881365836194658704E-30, 4.399999999999991473, 5.388445916248344152E-16 ) ) ;
#220 = DIRECTION ( 'NONE',  ( -3.491481338843133355E-15, 1.224646799147353454E-16, -1.000000000000000000 ) ) ;
#221 = CLOSED_SHELL ( 'NONE', ( #257, #317, #328, #324, #117 ) ) ;
#222 = VECTOR ( 'NONE', #67, 1000.000000000000000 ) ;
#223 = DIRECTION ( 'NONE',  ( 0.0000000000000000000, 1.000000000000000000, 0.0000000000000000000 ) ) ;
#224 =( NAMED_UNIT ( * ) SI_UNIT ( $, .STERADIAN. ) SOLID_ANGLE_UNIT ( ) );
#225 = DIRECTION ( 'NONE',  ( -3.491481338843133355E-15, 1.224646799147353454E-16, -1.000000000000000000 ) ) ;
#226 = AXIS2_PLACEMENT_3D ( 'NONE', #275, #68, #47 ) ;
#227 = ORIENTED_EDGE ( 'NONE', *, *, #155, .F. ) ;
#228 = DIRECTION ( 'NONE',  ( 4.275831445896959482E-31, 1.000000000000000000, 1.224646799147353207E-16 ) ) ;
#229 = EDGE_CURVE ( 'NONE', #133, #130, #44, .T. ) ;
#230 = VERTEX_POINT ( 'NONE', #22 ) ;
#231 = VERTEX_POINT ( 'NONE', #218 ) ;
#232 = AXIS2_PLACEMENT_3D ( 'NONE', #178, #52, #284 ) ;
#233 = COORDINATED_UNIVERSAL_TIME_OFFSET ( 1, 0, .AHEAD. ) ;
#234 = DIRECTION ( 'NONE',  ( 0.0000000000000000000, 1.000000000000000000, 0.0000000000000000000 ) ) ;
#235 = EDGE_CURVE ( 'NONE', #136, #180, #253, .T. ) ;
#236 = COORDINATED_UNIVERSAL_TIME_OFFSET ( 1, 0, .AHEAD. ) ;
#237 = DIRECTION ( 'NONE',  ( -4.275831445896959482E-31, -1.000000000000000000, -1.224646799147353454E-16 ) ) ;
#238 = COORDINATED_UNIVERSAL_TIME_OFFSET ( 1, 0, .AHEAD. ) ;
#239 = ORIENTED_EDGE ( 'NONE', *, *, #164, .F. ) ;
#240 = DATE_AND_TIME ( #134, #335 ) ;
#241 = PRODUCT_DEFINITION_FORMATION_WITH_SPECIFIED_SOURCE ( 'ANY', '', #145, .NOT_KNOWN. ) ;
#242 = EDGE_CURVE ( 'NONE', #85, #230, #147, .T. ) ;
#243 = EDGE_LOOP ( 'NONE', ( #91, #162, #189 ) ) ;
#244 = ORIENTED_EDGE ( 'NONE', *, *, #262, .T. ) ;
#245 = LINE ( 'NONE', #95, #222 ) ;
#246 = PRODUCT_DEFINITION_SHAPE ( 'NONE', 'NONE',  #12 ) ;
#247 = DIRECTION ( 'NONE',  ( 0.0000000000000000000, 1.000000000000000000, 0.0000000000000000000 ) ) ;
#248 = VECTOR ( 'NONE', #143, 1000.000000000000000 ) ;
#249 = CARTESIAN_POINT ( 'NONE',  ( 2.937253053105162585E-13, -3.600000000000010747, 84.00000000000000000 ) ) ;
#250 = CARTESIAN_POINT ( 'NONE',  ( 9.230732009754103819E-15, -4.399999999999989697, 2.643786723721288201 ) ) ;
#251 = FACE_OUTER_BOUND ( 'NONE', #78, .T. ) ;
#252 = CLOSED_SHELL ( 'NONE', ( #196, #84, #45, #124, #1, #35 ) ) ;
#253 = CIRCLE ( 'NONE', #50, 4.399999999999989697 ) ;
#254 = APPLICATION_PROTOCOL_DEFINITION ( 'international standard', 'config_control_design', 1994, #204 ) ;
#255 = ORIENTED_EDGE ( 'NONE', *, *, #174, .F. ) ;
#256 =( GEOMETRIC_REPRESENTATION_CONTEXT ( 3 ) GLOBAL_UNCERTAINTY_ASSIGNED_CONTEXT ( ( #125 ) ) GLOBAL_UNIT_ASSIGNED_CONTEXT ( ( #51, #280, #224 ) ) REPRESENTATION_CONTEXT ( 'NONE', 'WORKASPACE' ) );
#257 = ADVANCED_FACE ( 'NONE', ( #216 ), #302, .T. ) ;
#258 = DIRECTION ( 'NONE',  ( 3.491481338843133355E-15, -1.224646799147353454E-16, 1.000000000000000000 ) ) ;
#259 = VERTEX_POINT ( 'NONE', #127 ) ;
#260 = CYLINDRICAL_SURFACE ( 'NONE', #177, 4.399999999999991473 ) ;
#261 = PERSON_AND_ORGANIZATION ( #79, #278 ) ;
#262 = EDGE_CURVE ( 'NONE', #180, #136, #329, .T. ) ;
#263 = VECTOR ( 'NONE', #66, 999.9999999999998863 ) ;
#264 = CC_DESIGN_SECURITY_CLASSIFICATION ( #4, ( #241 ) ) ;
#265 = EDGE_LOOP ( 'NONE', ( #8, #14, #99, #186 ) ) ;
#266 = EDGE_LOOP ( 'NONE', ( #6, #179, #289, #267 ) ) ;
#267 = ORIENTED_EDGE ( 'NONE', *, *, #235, .F. ) ;
#268 = PERSON_AND_ORGANIZATION ( #79, #278 ) ;
#269 = APPROVAL_PERSON_ORGANIZATION ( #295, #331, #181 ) ;
#270 = EDGE_LOOP ( 'NONE', ( #315, #158, #311, #9 ) ) ;
#271 = DIRECTION ( 'NONE',  ( -3.491481338843133355E-15, 1.224646799147353454E-16, -1.000000000000000000 ) ) ;
#272 = LINE ( 'NONE', #219, #209 ) ;
#273 = CARTESIAN_POINT ( 'NONE',  ( 2.904912473917487456E-13, -1.018906136890598294E-14, 83.20000000000001705 ) ) ;
#274 = DIRECTION ( 'NONE',  ( 0.0000000000000000000, 1.000000000000000000, 0.0000000000000000000 ) ) ;
#275 = CARTESIAN_POINT ( 'NONE',  ( 1.012529588264508673E-13, -3.551475717527324818E-15, 29.00000000000000000 ) ) ;
#276 = CARTESIAN_POINT ( 'NONE',  ( 9.230732009754105396E-15, -3.237704948833544344E-16, 2.643786723721288645 ) ) ;
#277 = AXIS2_PLACEMENT_3D ( 'NONE', #165, #271, #234 ) ;
#278 = ORGANIZATION ( 'UNSPECIFIED', 'UNSPECIFIED', '' ) ;
#279 = APPLICATION_PROTOCOL_DEFINITION ( 'international standard', 'config_control_design', 1994, #90 ) ;
#280 =( NAMED_UNIT ( * ) PLANE_ANGLE_UNIT ( ) SI_UNIT ( $, .RADIAN. ) );
#281 = APPROVAL ( #123, 'UNSPECIFIED' ) ;
#282 = PERSON_AND_ORGANIZATION_ROLE ( 'design_owner' ) ;
#283 = EDGE_LOOP ( 'NONE', ( #296, #34 ) ) ;
#284 = DIRECTION ( 'NONE',  ( -3.501690807976800462E-31, -1.000000000000000000, -9.856383386231881014E-17 ) ) ;
#285 = APPROVAL_DATE_TIME ( #240, #331 ) ;
#286 = EDGE_CURVE ( 'NONE', #231, #85, #43, .T. ) ;
#287 = ORIENTED_EDGE ( 'NONE', *, *, #304, .F. ) ;
#288 = PERSON_AND_ORGANIZATION_ROLE ( 'creator' ) ;
#289 = ORIENTED_EDGE ( 'NONE', *, *, #155, .T. ) ;
#290 = CONICAL_SURFACE ( 'NONE', #65, 4.399999999999989697, 1.029744258676649649 ) ;
#291 = ADVANCED_BREP_SHAPE_REPRESENTATION ( '57852', ( #48, #54, #59 ), #256 ) ;
#292 = DIRECTION ( 'NONE',  ( 3.491481338843133355E-15, -1.224646799147353454E-16, 1.000000000000000000 ) ) ;
#293 = CARTESIAN_POINT ( 'NONE',  ( 1.012529588264508673E-13, 3.299471521856078527E-32, 29.00000000000000000 ) ) ;
#294 = CC_DESIGN_PERSON_AND_ORGANIZATION_ASSIGNMENT ( #268, #207, ( #241 ) ) ;
#295 = PERSON_AND_ORGANIZATION ( #79, #278 ) ;
#296 = ORIENTED_EDGE ( 'NONE', *, *, #286, .F. ) ;
#297 = AXIS2_PLACEMENT_3D ( 'NONE', #299, #159, #13 ) ;
#298 = AXIS2_PLACEMENT_3D ( 'NONE', #171, #19, #118 ) ;
#299 = CARTESIAN_POINT ( 'NONE',  ( 2.932844324628232018E-13, -1.028703311283776980E-14, 84.00000000000000000 ) ) ;
#300 = FACE_OUTER_BOUND ( 'NONE', #265, .T. ) ;
#301 = LINE ( 'NONE', #148, #87 ) ;
#302 = CYLINDRICAL_SURFACE ( 'NONE', #146, 4.399999999999991473 ) ;
#303 = CC_DESIGN_APPROVAL ( #138, ( #241 ) ) ;
#304 = EDGE_CURVE ( 'NONE', #15, #63, #210, .T. ) ;
#305 = CARTESIAN_POINT ( 'NONE',  ( 9.230732009754105396E-15, -3.237704948833544344E-16, 2.643786723721288645 ) ) ;
#306 = CC_DESIGN_DATE_AND_TIME_ASSIGNMENT ( #214, #326, ( #4 ) ) ;
#307 = CARTESIAN_POINT ( 'NONE',  ( 1.012529588264508673E-13, 4.399999999999989697, 29.00000000000000000 ) ) ;
#308 = AXIS2_PLACEMENT_3D ( 'NONE', #62, #121, #97 ) ;
#309 = COORDINATED_UNIVERSAL_TIME_OFFSET ( 1, 0, .AHEAD. ) ;
#310 = CC_DESIGN_PERSON_AND_ORGANIZATION_ASSIGNMENT ( #103, #282, ( #145 ) ) ;
#311 = ORIENTED_EDGE ( 'NONE', *, *, #93, .F. ) ;
#312 = DATE_TIME_ROLE ( 'creation_date' ) ;
#313 = EDGE_LOOP ( 'NONE', ( #255, #320, #244 ) ) ;
#314 = DIRECTION ( 'NONE',  ( -3.491481338843133355E-15, 1.224646799147353454E-16, -1.000000000000000000 ) ) ;
#315 = ORIENTED_EDGE ( 'NONE', *, *, #164, .T. ) ;
#316 = AXIS2_PLACEMENT_3D ( 'NONE', #192, #94, #247 ) ;
#317 = ADVANCED_FACE ( 'NONE', ( #82 ), #64, .T. ) ;
#318 = DIRECTION ( 'NONE',  ( 4.275831445896959482E-31, 1.000000000000000000, 1.224646799147353207E-16 ) ) ;
#319 = PERSON_AND_ORGANIZATION ( #79, #278 ) ;
#320 = ORIENTED_EDGE ( 'NONE', *, *, #21, .T. ) ;
#321 = FACE_OUTER_BOUND ( 'NONE', #327, .T. ) ;
#322 = CONICAL_SURFACE ( 'NONE', #297, 3.600000000000000533, 0.7853981633974512766 ) ;
#323 = ORIENTED_EDGE ( 'NONE', *, *, #151, .T. ) ;
#324 = ADVANCED_FACE ( 'NONE', ( #7 ), #260, .T. ) ;
#325 = CARTESIAN_POINT ( 'NONE',  ( 2.932844324628232018E-13, 2.699567608791329462E-32, 84.00000000000000000 ) ) ;
#326 = DATE_TIME_ROLE ( 'classification_date' ) ;
#327 = EDGE_LOOP ( 'NONE', ( #57, #128, #323, #105 ) ) ;
#328 = ADVANCED_FACE ( 'NONE', ( #55 ), #290, .T. ) ;
#329 = CIRCLE ( 'NONE', #18, 4.399999999999989697 ) ;
#330 = CARTESIAN_POINT ( 'NONE',  ( 0.0000000000000000000, 0.0000000000000000000, 0.0000000000000000000 ) ) ;
#331 = APPROVAL ( #32, 'UNSPECIFIED' ) ;
#332 = DIRECTION ( 'NONE',  ( -3.491481338843133355E-15, 1.224646799147353454E-16, -1.000000000000000000 ) ) ;
#333 = DIRECTION ( 'NONE',  ( -2.468850131082257455E-15, 0.7071067811865497932, -0.7071067811865453523 ) ) ;
#334 = DIRECTION ( 'NONE',  ( -3.491481338843133355E-15, 1.224646799147353454E-16, -1.000000000000000000 ) ) ;
#335 = LOCAL_TIME ( 9, 22, 46.00000000000000000, #233 ) ;
#336 = CARTESIAN_POINT ( 'NONE',  ( 1.012529588264508673E-13, 3.299471521856078527E-32, 29.00000000000000000 ) ) ;
#337 = DATE_AND_TIME ( #76, #83 ) ;
ENDSEC;
END-ISO-10303-21;
